» » »

Vines - Gross Out Tabs

Artists:  A B C D E F G H I J K L M N O P Q R S T U V W X Y Z # 

Gross Out Tabs

(ver. 3) Click to play this song!
Vines
 Rating:
4/5 (4 votes)

 Gross Out lessons Tabs too difficult? Try these video lessons and learn fast
 
                the song today and it's great.

                                    Verse 1
e---------------------------------------------------------------------------------|
B---------------------------------------------------------------------------------|
G---------------------------------------------------------------------------------|2x
D---------------------------------------------------------------------------------|
A-12-12-12-12-12-12-12-12-12-12-12-12-12-12-12-12-7-7-7-7-7-7-7-7-8-8-8-8-8-8-8-8-|
E-10-10-10-10-10-10-10-10-10-10-10-10-10-10-10-10-5-5-5-5-5-5-5-5-6-6-6-6-6-6-6-6-|

                                   Chorus 1
e----------------------------------------------------------------|
B----------------------------------------------------------------|
G----------------------------------------------------------------| 2x
D----------------------------------------------------------------|
A-5-5-5-5-5-5-5-5-5-5-5-5-5-5-5-5-5-5-5-8-8-8-8-7-7-7-7-7-7-7-7--|
E-3-3-3-3-3-3-3-3-3-3-3-3-3-3-3-3-8-8-8-6-6-6-6-5-5-5-5-5-5-5-5--|


                                    Verse 2
e---------------------------------------------------------------------------------|
B---------------------------------------------------------------------------------|
G---------------------------------------------------------------------------------|2x
D---------------------------------------------------------------------------------|
A-12-12-12-12-12-12-12-12-12-12-12-12-12-12-12-12-7-7-7-7-7-7-7-7-8-8-8-8-8-8-8-8-|
E-10-10-10-10-10-10-10-10-10-10-10-10-10-10-10-10-5-5-5-5-5-5-5-5-6-6-6-6-6-6-6-6-|

                                   Chorus 2
e----------------------------------------------------------------|
B----------------------------------------------------------------|
G----------------------------------------------------------------| 2x
D----------------------------------------------------------------|
A-5-5-5-5-5-5-5-5-5-5-5-5-5-5-5-5-5-5-5-8-8-8-8-7-7-7-7-7-7-7-7--|
E-3-3-3-3-3-3-3-3-3-3-3-3-3-3-3-3-8-8-8-6-6-6-6-5-5-5-5-5-5-5-5--|

                                  Verse 3
e---------------------------------------------------------------|
B---------------------------------------------------------------|
G---------------------------------------------------------------|2x
D---------------------------------------------------------------|
A-12-------7-7-7-7-7-7-7-7-8-8-8-8-8-8-8-8----------------------|
E-10-------5-5-5-5-5-5-5-5-6-6-6-6-6-6-6-6----------------------|
                                  Ending
e---------------------------------------------------------------|
B---------------------------------------------------------------|
G---------------------------------------------------------------|
D---------------------------------------------------------------|
A-12-12-12-12-12------------------------------------------------|
E-10-10-10-10-10-let-that-note-ring-----------------------------|
            
Submit corrections


        Gross Out lessons Hard to play? Try these video lessons and learn fast Gross Out lessons
        
↑ Back to top | Tablatures and chords for acoustic guitar and electric guitar, ukulele, drums are parodies/interpretations of the original songs. You may use it for private study, scholarship, research or language learning purposes only