» » »

Vines - Gross Out Tabs

Artists:  A B C D E F G H I J K L M N O P Q R S T U V W X Y Z # 

Gross Out Tabs

(ver. 2) Click to play this song!
Vines
 Rating:
4/5 (4 votes)

 Gross Out lessons Tabs too difficult? Try these video lessons and learn fast
 
                ===================================

A great and simple pre-released song by The Vines! 
This tab is 100% correct!
Enjoy! 

========================================================
INTRO

Strum freely: 
e|-----------------------------|
B|-----------------------------|
G|----7------------------------| x2
D|----7-x16----7-------8-------|
A|----5--------7-x8----8-x8----|
E|-------------5-------6-------|

========================================================
VERSE 1

Plam mute:
e|--------------------------------------|
B|--------------------------------------|
G|--------------------------------------| x2
D|--------------------------------------|
A|----5-x16--/--10-x3----8-x3----6-x8---|
E|----3------/--8--------6-------5------|

========================================================
CHORUS 1

Strum freely: 
e|-----------------------------|
B|-----------------------------|
G|----7------------------------| x2
D|----7-x16----7-------8-------|
A|----5--------7-x8----8-x8----|
E|-------------5-------6-------|

========================================================
VERSE 2

Plam mute:
e|--------------------------------------|
B|--------------------------------------|
G|--------------------------------------| x2
D|--------------------------------------|
A|----5-x16--/--10-x3----8-x3----6-x8---|
E|----3------/--8--------6-------5------|

========================================================
CHORUS 2

Strum freely: 
e|-----------------------------|
B|-----------------------------|
G|----7------------------------| x2
D|----7--------7-------8-------|
A|----5--------7-x8----8-x8----|
E|-------------5-------6-------|

========================================================
OUTRO

e|----------------------|
B|----------------------|
G|----7--7--7--7--7~----|
D|----7--7--7--7--7~----|
A|----5--5--5--5--5~----|
E|----------------------|

========================================================

-Vic (FlemFlames)
            
Submit corrections


        Gross Out lessons Hard to play? Try these video lessons and learn fast Gross Out lessons
        
↑ Back to top | Tablatures and chords for acoustic guitar and electric guitar, ukulele, drums are parodies/interpretations of the original songs. You may use it for private study, scholarship, research or language learning purposes only