» » »

Vines - Get Out Tabs

Artists:  A B C D E F G H I J K L M N O P Q R S T U V W X Y Z # 

Get Out Tabs

(ver. 2) Click to play this song!
Vines
 Rating:
4/5 (4 votes)

 Get Out lessons Tabs too difficult? Try these video lessons and learn fast
 
                Get Out-The Vines


|--------------------------------------------------------|x2
|--------------------------------------------------------|Intro
|--6-6-6-6-6-6-6-6---------------------------------------|
|--6-6-6-6-6-6-6-6--4-4-4-4-7-7-7-7----------------------|
|--4-4-4-4-4-4-4-4--4-4-4-4-7-7-7-7----------------------|
|-------------------2-2-2-2-5-5-5-5----------------------|

 PM------------------------------------------------------------
|------------------------------------------------------------------------|x3
|-----------------------------------------On-Third-Time------------------|
|------------------------------------------------------------------------|
|--6-6-6-6-6-6-6-6-------------------(---------------------------------)-|
|--4-4-4-4-4-4-4-4--4-4-4-4-7-7-7-7--(-2-2-2-2-2-2-2-2-4-4-4-4-4-4-4-4-)-|
|-------------------2-2-2-2-5-5-5-5--(-0-0-0-0-0-0-0-0-2-2-2-2-2-2-2-2-)-|

|------------------------------------------------------------------------|x3
|-----------------------------------------On-Third-Time------------------|
|--6-6-6-6-6-6-6-6-------------------------------------------------------|
|--6-6-6-6-6-6-6-6--4-4-4-4-7-7-7-7--(-2-2-2-2-2-2-2-2-4-4-4-4-4-4-4-4-)-|
|--4-4-4-4-4-4-4-4--4-4-4-4-7-7-7-7--(-2-2-2-2-2-2-2-2-4-4-4-4-4-4-4-4-)-|
|-------------------2-2-2-2-5-5-5-5--(-0-0-0-0-0-0-0-0-2-2-2-2-2-2-2-2-)-|

PM------------------------------------------------------------
|------------------------------------------------------------------------|x3
|-----------------------------------------On-Third-Time------------------|
|------------------------------------------------------------------------|
|--6-6-6-6-6-6-6-6-------------------(---------------------------------)-|
|--4-4-4-4-4-4-4-4--4-4-4-4-7-7-7-7--(-2-2-2-2-2-2-2-2-4-4-4-4-4-4-4-4-)-|
|-------------------2-2-2-2-5-5-5-5--(-0-0-0-0-0-0-0-0-2-2-2-2-2-2-2-2-)-|

|------------------------------------------------------------------------|x3
|-----------------------------------------On-Third-Time------------------|
|--6-6-6-6-6-6-6-6-------------------------------------------------------|
|--6-6-6-6-6-6-6-6--4-4-4-4-7-7-7-7--(-2-2-2-2-2-2-2-2-4-4-4-4-4-4-4-4-)-|
|--4-4-4-4-4-4-4-4--4-4-4-4-7-7-7-7--(-2-2-2-2-2-2-2-2-4-4-4-4-4-4-4-4-)-|
|-------------------2-2-2-2-5-5-5-5--(-0-0-0-0-0-0-0-0-2-2-2-2-2-2-2-2-)-|
                                                                        |4|
|------------------------------------------------------------on-4th-time-4-|
|---------------------------------------------------------instead-of-12x-2-|
|------------------9-9-9-9-9-9-9-9---------------------------just-do-this--|
|-7-7-7-7-7-7-7-7--9-9-9-9-9-9-9-9-4-4-4-4-4-4-4-4-4-4-4-4-4-4-(4--4-4-4-4)|
|-7-7-7-7-7-7-7-7--7-7-7-7-7-7-7-7-4-4-4-4-4-4-4-4-4-4-4-4-4-4-(4--4-4-4-4)|
|-5-5-5-5-5-5-5-5------------------2-2-2-2-2-2-2-2-2-2-2-2-6-6-(2--2-2-2-2)|

|--------------------------------------------------------------------------|
|-9-7-5------------9-7-5-----------9-7-5-----------------------------------|
|-------6-4--------------6-4-------------6-4------1-1-1-1-1-1-1-4-4-4-4-4-5|
|-----------6--4~~-----------6b--------------6-4---------------------------|
|--------------------------------------------------------------------------|
|--------------------------------------------------------------------------|

|------------------------------------------------------------------------|x3
|-----------------------------------------On-Third-Time------------------|
|--6-6-6-6-6-6-6-6-------------------------------------------------------|
|--6-6-6-6-6-6-6-6--4-4-4-4-7-7-7-7--(-2-2-2-2-2-2-2-2-4-4-4-4-4-4-4-4-)-|
|--4-4-4-4-4-4-4-4--4-4-4-4-7-7-7-7--(-2-2-2-2-2-2-2-2-4-4-4-4-4-4-4-4-)-|
|-------------------2-2-2-2-5-5-5-5--(-0-0-0-0-0-0-0-0-2-2-2-2-2-2-2-2-)-|

|----------|
|----------|
|----------|
|-7-4------|
|-7-4------|
|-5-6------|

sorry if its hard to understand but its the best i could do
have fun (best song and band eva)
            
Submit corrections


        Get Out lessons Hard to play? Try these video lessons and learn fast Get Out lessons
        
↑ Back to top | Tablatures and chords for acoustic guitar and electric guitar, ukulele, drums are parodies/interpretations of the original songs. You may use it for private study, scholarship, research or language learning purposes only