» » »

Vines - Get Free Tabs

Artists:  A B C D E F G H I J K L M N O P Q R S T U V W X Y Z # 

Get Free Tabs

(ver. 3) Click to play this song!
Vines
 Rating:
4/5 (4 votes)

 Get Free lessons Tabs too difficult? Try these video lessons and learn fast
 
                The Vines - Get Free

Here's my tab for this awesome song, they look like theyre going to be a great band.
I doubt its 100% right but it sounds okay to me.
Standard Tuning

Quick reference : 'b' bend 'rb' - reverse bend
  '~' - vibrato '\' - Slide down the fretboard towards the next note.



Intro and Main Riff
Ok this is hard to explain, but easy to do.  In the first 3 bars the '3' notes on the A string are
bent gradually higher in pitch, but im not sure of a way to write it into the tab (I've stuck
them underneath so it doesnt get too confusing).
I worked it out so that you begin to bend the string on the 3rd chord at a 1/4 bend, 
and by the 7th note it should be a 2 fret bend so it sounds like a '5' note on 
the A string. If you've heard the record im sure you'll know what i mean.

E|-------------------|-------------------|-------------------|-------------|
B|-------------------|-------------------|-------------------|-------------|
G|-------------------|-------------------|-------------------|-7--7--------|
D|-5-5-5-5-5-5-5-\3--|-5-5-5-5-5-5-5-\3--|-5-5-5-5-5-5-5-\3--|-7--7-5-5-5--| X2
A|-3-3-3-3-3-3-3-\1--|-3-3-3-3-3-3-3-\1--|-3-3-3-3-3-3-3-\1--|-5--5-5-5-5--|
E|-------------------|-------------------|-------------------|------3-3-3--| 
     b1/4 >  b2          b1/4  >  b2         b1/4  >  b2         

Verse 
Identical, but with palm muting.

PM-----------------------------------------------
E|-------------------|-------------------|-------------------|-------------|
B|-------------------|-------------------|-------------------|-------------|
G|-------------------|-------------------|-------------------|-7--7--------|
D|-5-5-5-5-5-5-5-\3--|-5-5-5-5-5-5-5-\3--|-5-5-5-5-5-5-5-\3--|-7--7-5-5-5--| X2
A|-3-3-3-3-3-3-3-\1--|-3-3-3-3-3-3-3-\1--|-3-3-3-3-3-3-3-\1--|-5--5-5-5-5--|
E|-------------------|-------------------|-------------------|------3-3-3--| 
     b1/4 >  b2          b1/4  >  b2         b1/4  >  b2              

Chorus 
The "Come In Come In Come In" part.

E|-----------------------------------------------------|
B|-----------------------------------------------------|
G|-5-7-5-7-5-7----------------5-7-5-7-5-7-------------|
D|-5-7-5-7-5-7-5-5-5-6-6-3-3--5-7-5-7-5-7-5-5-6-6-3-3--| X2
A|-3-5-3-5-3-5-5-5-5-6-6-3-3--3-5-3-5-3-5-5-5-6-6-3-3--|
E|-------------3-3-3-4-4-1-1--------------3-3-4-4-1-1--|

Post-Chorus (solo)
This part is double tracked, as the vibrato keeps ringing until the next power chord,
but you can pull it off pretty well anyway.
                  
E|---------------------------------------------|
B|---------------------------------------------|
G|----5-7-5----5-7-5----5-7-5-7b9rb7--7-5------|
D|-5--------5--------5--------------------5----| X2
A|-3~-------3~-------3~---------------------5--|
E|---------------------------------------------|

Verse 2
The PM is still there, but it sounds like there arent any bends until you release your palm.

PM-----------------------------------------------
E|-------------------|-------------------|-------------------|-------------|
B|-------------------|-------------------|-------------------|-------------|
G|-------------------|-------------------|-------------------|-7--7--------|
D|-5-5-5-5-5-5-5-\3--|-5-5-5-5-5-5-5-\3--|-5-5-5-5-5-5-5-\3--|-7--7-5-5-5--| X2
A|-3-3-3-3-3-3-3-\1--|-3-3-3-3-3-3-3-\1--|-3-3-3-3-3-3-3-\1--|-5--5-5-5-5--|
E|-------------------|-------------------|-------------------|------3-3-3--| 
                                                b1/4  b2   

Chorus 2
The ending to this is a little different.

E|---------------------------|----------------------------|
B|---------------------------|----------------------------|
G|-5-7-5-7-5-7---------------|-5-7-5-7-5-7----------------|
D|-5-7-5-7-5-7-5-5-5-6-6-3-3-|-5-7-5-7-5-7-5-5-5-6-6-3-3--|
A|-3-5-3-5-3-5-5-5-5-6-6-3-3-|-3-5-3-5-3-5-5-5-5-6-6-3-3--|
E|-------------3-3-3-4-4-1-1-|-------------3-3-3-4-4-1-1--|

E|---------------------------|----------------------------|
B|---------------------------|----------------------------|
G|-5-7-5-7-5-7---------------|-5-7-5-7-5-7----------------|
D|-5-7-5-7-5-7-5-5-5-6-6-3-3-|-5-7-5-7-5-7-5-5-6-6-8-8-8--|
A|-3-5-3-5-3-5-5-5-5-6-6-3-3-|-3-5-3-5-3-5-5-5-6-6-8-8-8--|
E|-------------3-3-3-4-4-1-1-|-------------3-3-4-4-6-6-6--|

Bridge 
Could be doubletracked, hard to tell, but I figured this bit out.

E|------------------------------------------------------------------------|
B|------------------------------------------------------------------------|
G|---------5-5---------------------------5-5------------------------------|
D|-5-5-7-7---------------5-5---5-5-7-7-----------------5-5-----------5-5--|
A|---------------5-5-7-7-----------------------5-5-7-7-------5-5-7-7------|
E|------------------------------------------------------------------------|

Main Riff

E|-------------------|-------------------|-------------------|-------------|
B|-------------------|-------------------|-------------------|-------------|
G|-------------------|-------------------|-------------------|-7--7--------|
D|-5-5-5-5-5-5-5-\3--|-5-5-5-5-5-5-5-\3--|-5-5-5-5-5-5-5-\3--|-7--7-5-5-5--| X2
A|-3-3-3-3-3-3-3-\1--|-3-3-3-3-3-3-3-\1--|-3-3-3-3-3-3-3-\1--|-5--5-5-5-5--|
A|-------------------|-------------------|-------------------|------3-3-3--| 
     b1/4 >  b2          b1/4  >  b2         b1/4  >  b2         

Chorus 3 (Outro)
At the end, theres lots of feedback and random noise, just mess about 
with the strings.

E|-------------------------------------------------------|
B|-------------------------------------------------------|
G|-5-7-5-7-5-7----------------5-7-5-7-5-7----------------|
D|-5-7-5-7-5-7-5-5-5-6-6-3-3--5-7-5-7-5-7-5-5-5-6-6-3-3--| X2
A|-3-5-3-5-3-5-5-5-5-6-6-3-3--3-5-3-5-3-5-5-5-5-6-6-3-3--|
E|-------------3-3-3-4-4-1-1--------------3-3-3-4-4-1-1--|

And thats it, hope it sounds okay.
questions. Thanks
            
Submit corrections


        Get Free lessons Hard to play? Try these video lessons and learn fast Get Free lessons
        
↑ Back to top | Tablatures and chords for acoustic guitar and electric guitar, ukulele, drums are parodies/interpretations of the original songs. You may use it for private study, scholarship, research or language learning purposes only