» » »

Vines - Get Free Tabs

Artists:  A B C D E F G H I J K L M N O P Q R S T U V W X Y Z # 

Get Free Tabs

(ver. 1) Click to play this song!
Vines
 Rating:
4/5 (4 votes)

 Get Free lessons Tabs too difficult? Try these video lessons and learn fast
 
                PROPS GO TO: Shaoran mc

Get Free 

Intro 
  (3x)                     (1x)
e|------------------------|-----------------
B|------------------------|-----------------
G|------------------------|-5-5-------------
D|------------------------|-5-5-5-5---------
A|3/5-5-5b-5b-5b-5b-5b-5b-|-3-3-5-5---------
E|------------------------|-----3-3---------
  
Verse 
  (3x P.M.)           (1x dont p.m.)
e|-------------------|----------------------
B|-------------------|----------------------
G|-5/7-7-7-7-7-7-7-7-|-5-5------------------
D|-5/7-7-7-7-7-7-7-7-|-5-5--5-5-------------
A|-3/5-5-5-5-5-5-5-5-|-3-3--5-5-------------
E|-------------------|------3-3-------------
"I'm guna get free"

Chorus 
e|-----------------------------------------
B|-----------------------------------------
G|-5-7-5-7-5-7---------3-3-----------------
D|-5-7-5-7-5-7--5-5-5--3-3-3-3-------------
A|-3-5-3-5-3-5--5-5-5--1-1-3-3-------------
E|--------------3-3-3------1-1-------------
"Come here, come here, come here..."

Solo
e|-----------------------------------------
B|-----------------------------------------
G|-7--5-7-5-7--5-7-5-7--5-7-5--7b8-5-------
D|-7--------7--------7---------------7-5---
A|-5--------5--------5---------------------
E|-----------------------------------------

Bridge

e|---------------------------------------------------
B|---------------------------------------------------
G|-3--1-1-3------------3--1-1-3----------------------
D|-3---------5--3-3-5--3---------7-7-5-7-5-7-7-5-7-5-
A|-1---------5---------1---------7-7-------7-7-------
E|-----------3-------------------5-5-------5-5-------
"When its breeding time..."




Intro....2x
Verse....2x
Chorus...4x
Solo.....2x
Verse....2x
Chorus...4x
Bridge...1x
Intro....1x
Verse....1x
Chorus...4x
            
Submit corrections


        Get Free lessons Hard to play? Try these video lessons and learn fast Get Free lessons
        
↑ Back to top | Tablatures and chords for acoustic guitar and electric guitar, ukulele, drums are parodies/interpretations of the original songs. You may use it for private study, scholarship, research or language learning purposes only