» » »

Vines - F*** The World Tabs

Artists:  A B C D E F G H I J K L M N O P Q R S T U V W X Y Z # 

F*** The World Tabs

(ver. 1) Click to play this song!
Vines
 Rating:
4/5 (4 votes)

 F*** The World lessons Tabs too difficult? Try these video lessons and learn fast
 
                Intro is just bass with random guitar feedback and noises.

Drums start to build before main riff comes in...

Main Riff(chorus):
e|----------------------------|
B|----------------------------|
G|-2-2--2-2-2-2-x-5-5-5-------|
D|-2-2--2-2-2-2-x-5-5-5-4-4-4-|
A|-0-0--0-0-0-0-x-3-3-3-4-4-4-|
E|----------------------2-2-2-|

Verse:  (palm muted)
e|---------------|
B|---------------|
G|-2-x-2-x-5-x---|
D|-2-x-2-x-5-x-4-|
A|-0-x-0-x-3-x-4-|
E|-------------2-|

Thats the whole song if you add some bass, drums and incomprehensible lyrics from a madman/genius.

Please rate this tab! Cheers,

Rich
            
Submit corrections


        F*** The World lessons Hard to play? Try these video lessons and learn fast F*** The World lessons
        
↑ Back to top | Tablatures and chords for acoustic guitar and electric guitar, ukulele, drums are parodies/interpretations of the original songs. You may use it for private study, scholarship, research or language learning purposes only