» » »

Vines - Dope Train Bass

Artists:  A B C D E F G H I J K L M N O P Q R S T U V W X Y Z # 

Dope Train Bass

(ver. 1) Click to play this song!
Vines
 Rating:
4/5 (4 votes)

 Dope Train lessons Tabs too difficult? Try these video lessons and learn fast
 
                			     Dope Train - The Vines


Tuning: Standard (EADG)

Intro

(0:00)
G|---------------------------------------------------------------------------|
D|---------------------------------------------------------------------------|
A|---------------------------------------------------------------------------|
E|-555555555-6-6-555555555-6-6-88888888888-6-6-555555555-6-6-----------------|

Verse 1

(0:14)
G|---------------------------------------------------------------------------|
D|---------------------------------------------------------------------------|
A|-0-0-x-0-0-0-1-1-0-0-x-0-0-0-1-1-1/3-3-3/10-10-\1-1-0-0-x-0-0-0-1-1--------| x2
E|---------------------------------------------------------------------------|

Chorus 1

(0:44)
G|---------------------------------------------------------------------------|
D|---------------------------------------------------------------------------|
A|------------------------------------10--------------10---------------------|
E|-555555555-6-6-555555555-6-6-8-8/12----12-10-8-8/12----12\6-5555555555-6-6-|

Verse 2

(0:58)
G|---------------------------------------------------------------------------|
D|---------------------------------------------------------------------------|
A|-0-0-x-0-0-0-1-1-0-0-x-0-0-0-1-1-1/3-3-3/10-10-\1-1-0-0-x-0-0-0-1-1--------| x2
E|---------------------------------------------------------------------------|

Chorus 2

(1:28)
G|---------------------------------------------------------------------------|
D|---------------------------------------------------------------------------|
A|------------------------------------10--------------10---------------------|
E|-555555555-6-6-555555555-6-6-8-8/12----12-10-8-8/12----12\6-5555555555-6-6-|

Bridge

(1:43)
G|----------------------------------|
D|----------------------------------|
A|-------------3-3-00000000000------| x2
E|--3333333333-----------------6-6--|

Guitar Solo

(1:57)
G|--------------------------------------|
D|--------------------------------------|
A|--------------------------------------|
E|--5~~~-6-6-5~~~-6-6-8~~~-6-6-5~~~~-6-6|

Outro

(2:14)
G|---------------------------------------------------------------------------|
D|---------------------------------------------------------------------------|
A|---------------------------------------------------------------------------|
E|-5-55555555-6-6-5-55555555-6-6-8-8888888888-6-6-5-55555555-6-6-5~~~~-------|



| /  slide up
| \  slide down
| h  hammer-on
| p  pull-off
| b  bend
| ~  let ring
| +  harmonic
| x  Mute note
            
Submit corrections


        Dope Train lessons Hard to play? Try these video lessons and learn fast Dope Train lessons
        
↑ Back to top | Tablatures and chords for acoustic guitar and electric guitar, ukulele, drums are parodies/interpretations of the original songs. You may use it for private study, scholarship, research or language learning purposes only