» » »

Vines - Don't Go Tabs

Artists:  A B C D E F G H I J K L M N O P Q R S T U V W X Y Z # 

Don't Go Tabs

(ver. 2) Click to play this song!
Vines
 Rating:
4/5 (4 votes)

 Don't Go lessons Tabs too difficult? Try these video lessons and learn fast
 
                Intro

                                                                 X4  
e|--------------------------------------------------------------------|
B|--------------------------------------------------------------------|
G|--------------------------------------------------------------------|
D|-----------------------------------5---5---5---5---7---7---7--------|
A|----5---5---5---5---6---6---6----3---3---3---3---6---6---6---6------|
E|--3---3---3---3---4---4---4---4-------------------------------------|


Chorus:

                                                                   X2
e|--------------------------------------------------------------------|
B|--------------------------------------------------------------------|
G|----------------------------------5-5-5-5-5-5-5-5-8-8-8-8-8-8-8-8---|
D|--5-5-5-5-5-5-5-5-6-6-6-6-6-6-6-6-5-5-5-5-5-5-5-5-8-8-8-8-8-8-8-8---|
A|--5-5-5-5-5-5-5-5-6-6-6-6-6-6-6-6-3-3-3-3-3-3-3-3-6-6-6-6-6-6-6-6---|
E|--3-3-3-3-3-3-3-3-4-4-4-4-4-4-4-4-----------------------------------|




Verse:

                                                                 X4  
e|--------------------------------------------------------------------|
B|--------------------------------------------------------------------|
G|--------------------------------------------------------------------|
D|-----------------------------------5---5---5---5---7---7---7--------|
A|----5---5---5---5---6---6---6----3---3---3---3---6---6---6---6------|
E|--3---3---3---3---4---4---4---4-------------------------------------|

Chorus:

                                                                X6
e|--------------------------------------------------------------------|
B|--------------------------------------------------------------------|
G|----------------------------------5-5-5-5-5-5-5-5-8-8-8-8-8-8-8-8---|
D|--5-5-5-5-5-5-5-5-6-6-6-6-6-6-6-6-5-5-5-5-5-5-5-5-8-8-8-8-8-8-8-8---|
A|--5-5-5-5-5-5-5-5-6-6-6-6-6-6-6-6-3-3-3-3-3-3-3-3-6-6-6-6-6-6-6-6---|
E|--3-3-3-3-3-3-3-3-4-4-4-4-4-4-4-4-----------------------------------|



Little Solo Near The End:

                                                               X2
e|--------------------------------------------------------------------|
B|--------------------------------------------------------------------|
G|--------------------------------------------------------------------|
D|--------------------------------------------------------------------|
A|----5-3-5bend--p3----5-3-5bend--p3----5-3-5bend--p3---5-3-5bend--p3-|
E|--3----------------3----------------3---------------3---------------|
            
Submit corrections


        Don't Go lessons Hard to play? Try these video lessons and learn fast Don't Go lessons
        
↑ Back to top | Tablatures and chords for acoustic guitar and electric guitar, ukulele, drums are parodies/interpretations of the original songs. You may use it for private study, scholarship, research or language learning purposes only