» » »

Vines - Braindead Bass

Artists:  A B C D E F G H I J K L M N O P Q R S T U V W X Y Z # 

Braindead Bass

(ver. 1) Click to play this song!
Vines
 Rating:
4.2/5 (5 votes)

 Braindead lessons Tabs too difficult? Try these video lessons and learn fast
 
                			     Braindead - The Vines

Tuning: Standard


Intro/Verse/Chorus/Outro:
      
G||--------------------------|--------------------------|
D||--------------------------|--------------------------|
A||--6--6-----4-----------4--|--------------------------|
E||-----------------5--------|-----4-----2--2--2--2--2--|


Bridge:

G||--------------------------|--------------------------|
D||--------------------------|--------------------------|
A||--------------------------|--------------------------|
E||--4--4--4--4--4--4--4--4--|--5--5--5--5--5--5--5--5--|
 
G||--------------------------|--------------------------|
D||--------------------------|-----4--4--2--------------|
A||--------------------------|--------------4--3--2-----|
E||--2--2--2--2--2--2--2--2--|--2--------------------5--|
            
Submit corrections


        Braindead lessons Hard to play? Try these video lessons and learn fast Braindead lessons
        
↑ Back to top | Tablatures and chords for acoustic guitar and electric guitar, ukulele, drums are parodies/interpretations of the original songs. You may use it for private study, scholarship, research or language learning purposes only