» » »

Vines - Autumn Shade Ii Bass

Artists:  A B C D E F G H I J K L M N O P Q R S T U V W X Y Z # 

Autumn Shade Ii Bass

(ver. 1) Click to play this song!
Vines
 Rating:
4/5 (4 votes)

 Autumn Shade Ii lessons Tabs too difficult? Try these video lessons and learn fast
 
                Finish of the verse: (00:31)
G----------------|
D----------------|
A-3-3-3/10-1099--|
E----------------|
  f**kin' mad

Chorus:
G---------------------------|
D---------------------------|
A-7-7-7-7-7-77-3-3-33-------|
E--------------------3-3-33-|
 Looking at the autumn shade

G-----------------------------------|
D-----------------------------------|
A-7-7-7-7-7-77-3-3-3/10-10-10h12p10-|
E-----------------------------------|
 You are white and I am grey
G-------------------------------------|
D-------------------------------------|
A-7-7-7-1010-7-7-10-3-3-3/10-10-99-7~-|
E-------------8-----------------------|
 Looking at the autumn shade...oh yeah

Verse:/outro
G--------------|
D--------------|
A-3~2--------0~|
E----3~-0~--3--|
            
Submit corrections


        Autumn Shade Ii lessons Hard to play? Try these video lessons and learn fast Autumn Shade Ii lessons
        
↑ Back to top | Tablatures and chords for acoustic guitar and electric guitar, ukulele, drums are parodies/interpretations of the original songs. You may use it for private study, scholarship, research or language learning purposes only