» » »

Vines - Autumn Shade Tabs

Artists:  A B C D E F G H I J K L M N O P Q R S T U V W X Y Z # 

Autumn Shade Tabs

(ver. 1) Click to play this song!
Vines
 Rating:
4/5 (20 votes)

 Autumn Shade lessons Tabs too difficult? Try these video lessons and learn fast
 
                Artist = The Vines
Song   = Autumn Shade
Album  = Highly Evolved

Great song, great album, but not as great as Bristol city, lol
Anyway, the tab. I am sure that the solo is perfect, listen to it for 
timing, I have tried to put it in a little, but it is always
hard with a Solo.


Chords used:

Em 022000
C  X32010
Bb X13331 –or- \688766/
Fm 133111
Am X02210 –or- \577555/


Em                   C
Slip into the autumn shade
                  Bb
I could sleep for days
      Fm
But I like the sun when
Em                 C
I can hear another sound
               Bb
It's along way down
Am
Keep my head up


(Drums come in)
Em                     C
Who are you to be this way
            Bb
Dreaming so insane
      Fm
But I like the sun when

(strum Em + C once)
Em                      C
Falling through another plain
              Bb
Never one the same
Am
Keep my head up

Solo:

e-5-7-----------------------------------------------------|
B-----8-8-5--3-3~~---5-3-5-3-6~~--8-8-8^(10)--6--3^(4)--1-|
G---------------------------------------------------------|
D---------------------------------------------------------|
A---------------------------------------------------------|
E---------------------------------------------------------|

|Em            |C            |Bb          |Fm             |

E---------------------------------------------------------|
B------------------------------------(feint, bit unsure)--|
G--4-7-7-4-7~-9-5~~~--3-5-5-7-4~~----8-8~~-6~~-4~~--------|
D---------------------------------------------------------|
A---------------------------------------------------------|
E---------------------------------------------------------|

|Em             |C            |Bb            |Am
e-------------------------------------------------|
B-------------------------------------------------|
G---------2---------2—3~~--2----3-2-0---0-2-3—2---|then strait in with
D-2~~~~~5---2~~~~~5----------5~-------2-----------|
A-------------------------------------------------|
E-------------------------------------------------|

|Em        |C        |Bb       |Fm             |

e-------------------------------------------------|
B-------------------------------------------------|
G---------2---------2—3~~--2----3-2-0---0-2-3-0-4~|hold the note
D-2~~~~~5---2~~~~~5----------5~-------2-----------|
A-------------------------------------------------|
E-------------------------------------------------|

|Em        |C        |Bb       |Am           Em |(hold, until fade)


any comments or questions, e-mail me 
don’t bother sending me anything if your name is 
craig Jennings, nim, kev, fuss, gurps or anyone 
else I know who wants to try and be funny. 
Greg you're too tall !!!
(hello zoe *wink wink*)
            
Submit corrections


        Autumn Shade lessons Hard to play? Try these video lessons and learn fast Autumn Shade lessons
        
↑ Back to top | Tablatures and chords for acoustic guitar and electric guitar, ukulele, drums are parodies/interpretations of the original songs. You may use it for private study, scholarship, research or language learning purposes only