» » »

Vines - Anysound Tabs

Artists:  A B C D E F G H I J K L M N O P Q R S T U V W X Y Z # 

Anysound Tabs

(ver. 2) Click to play this song!
Vines
 Rating:
4.3/5 (6 votes)

 Anysound lessons Tabs too difficult? Try these video lessons and learn fast
 
                The Vines
Anysound
Vision Valley
This is how i saw them play it on the show at channel v so im pretty sure it should b almost 100% correct.

intro                      
|----------------------------|
|----------------------------|
|--5/7--5--------------------| x12
|--5/7--5--7--x-x-x-x--------|
|--3/5--3--7--x-x-x-x--------|
|----------5--x-x-x-x--------|

|--------------------------------|
|--------------------------------|
|--7-7-7-7-7-7-7---------5-5-5-5-|x3
|--7-7-7-7-7-7-7-7-7-7-7-5-5-5-5-|
|--5-5-5-5-5-5-5-7-7-7-7-3-3-3-3-|
|----------------5-5-5-5---------|

Play all of that again
--------------------------------------------------------------------------

|--------------------------------------------------------------------------
|---------------15b1615-13-------------------------------------------------
|12b13~-14-14------------14-12-7-5-7-5-----------5b-7-5-7b-7b-7b-7b-5------
|---------------------------------------7-5-7-5-----------------------7-5--
|--------------------------------------------------------------------------
|--------------------------------------------------------------------------

---------------------------------|
--------------------13-------15b-|
12b-12b-14-14-14-14----14-14-----|
---------------------------------|
---------------------------------|
---------------------------------|


-------------------------------------------------------------------------

|--------------------------------|
|--------------------------------|
|--7-7-7-7-7-7-7---------5-5-5-5-|x3
|--7-7-7-7-7-7-7-7-7-7-7-5-5-5-5-|
|--5-5-5-5-5-5-5-7-7-7-7-3-3-3-3-|
|----------------5-5-5-5---------|

|--------------|
|--------------|
|--5/7--5------|
|--5/7--5--7~--|
|--3/5--3--7~--|
|----------5~--|


thanks 2 my cuz 4 figuring the solo part out
            
Submit corrections


        Anysound lessons Hard to play? Try these video lessons and learn fast Anysound lessons
        
↑ Back to top | Tablatures and chords for acoustic guitar and electric guitar, ukulele, drums are parodies/interpretations of the original songs. You may use it for private study, scholarship, research or language learning purposes only