» » »

Vines - Ain't No Room Tabs

Artists:  A B C D E F G H I J K L M N O P Q R S T U V W X Y Z # 

Ain't No Room Tabs

(ver. 2) Click to play this song!
Vines
 Rating:
4/5 (4 votes)

 Ain't No Room lessons Tabs too difficult? Try these video lessons and learn fast
 
                Intro: Bend each note
E----------------------------------------------------------------
B----------------------------------------------------------------
G--8-8-8-8-6-6-6-6-5-5-5-5-5-5-5-5-------------------------------
D----------------------------------------------------------------
A----------------------------------------------------------------
E----------------------------------------------------------------

Verse Part 1:
E----------------------------------------------------------------
B----------------------------------------------------------------
G----------------5--5--5--5--------------5--5--5--5--------------
D----7--7--7--7--5--5--5--5--7--7--7--7--5--5--5--5--------------
A----7--7--7--7--3--3--3--3--7--7--7--7--3--3--3--3--------------
E----5--5--5--5--------------5--5--5--5--------------------------

Verse Part 2:
E----------------------------------------------------------------
B----------------------------------------------------------------
G-----------555555--------555555---------------------------------
D----777777-555555-777777-555555---------------------------------
A----777777-333333-777777-333333---------------------------------
E----555555--------555555----------------------------------------

Chorus:
E----------------------------------------------------------------
B----------------------------------------------------------------
G------------5555--------------------55555555--------------------
D--7777-5555-5555-77777777-7777-5555-55555555--------------------
A--7777-5555-3333-77777777-7777-5555-33333333--------------------
E--5555-3333------55555555-5555-3333-----------------------------

Bridge: "Goin outta my head"
E----------------------------------------------------------------
B----------------------------------------------------------------
G----7~----5~---------------7~----5~-----------------------------
D----7~----5~---5~----7~----7~----5~---5~---7~-------------------
A----5~----3~---5~----7~----5~----3~---5~---7~-------------------
E---------------3~----5~---------------3~---5~-------------------
            
Submit corrections


        Ain't No Room lessons Hard to play? Try these video lessons and learn fast Ain't No Room lessons
        
↑ Back to top | Tablatures and chords for acoustic guitar and electric guitar, ukulele, drums are parodies/interpretations of the original songs. You may use it for private study, scholarship, research or language learning purposes only