» » »

Vines - Ain't No Room Tabs

Artists:  A B C D E F G H I J K L M N O P Q R S T U V W X Y Z # 

Ain't No Room Tabs

(ver. 1) Click to play this song!
Vines
 Rating:
4/5 (4 votes)

 Ain't No Room lessons Tabs too difficult? Try these video lessons and learn fast
 
                Intro:

-8br-8br-8br-8br--4br-4br-4br-4br--2br-2br-2br-2br-2br-2br-2br-2br-|x2
                                                                              

-5-5-5-5-5-5-5-5-------------------------------------------------|
-5-5-5-5-5-5-5-5-5-5-5-5-5-5-5-5-7-7-7-7-7-7-7-7-7-7-7-7-7-7-7-7-|x 2
-3-3-3-3-3-3-3-3-5-5-5-5-5-5-5-5-7-7-7-7-7-7-7-7-7-7-7-7-7-7-7-7-|
-----------------3-3-3-3-3-3-3-3-5-5-5-5-5-5-5-5-5-5-5-5-5-5-5-5-|
                                                                              

Verse:
---------------------------------------------------|
---------------------------------------------------|
-----5-----5---------------------------------------|
-----5-----5-----5-----5------7-----7-----7-----7--|x 2
-----3-----3-----5-----5------7-----7-----7-----7--|
-----------------3-----3------5-----5-----5-----5--|
                                        
                                      
Bridge(so take me away from the...):
--------------------------------------------------------|
--------------------------------------------------------|
-5--5--5--5-5-------------------------------------------|
-5--5--5--5-5--5--5--5--5-5--7--7--7--7-7--7--7--7--7-7-|
-3--3--3--3-3--5--5--5--5-5--7--7--7--7-7--7--7--7--7-7-|
---------------3--3--3--3-3--5--5--5--5-5--5--5--5--5-5-|
                                                                              

Chorus:
---------------------------------------------------|
---------------------------------------------------|
-7-7-7-7-7-7-7-7--5-5-5-5-5-5-5-5------------------|
-7-7-7-7-7-7-7-7--5-5-5-5-5-5-5-5--7-7-7-7-7-7-7-7-|
-5-5-5-5-5-5-5-5--3-3-3-3-3-3-3-3--7-7-7-7-7-7-7-7-|
-----------------------------------5-5-5-5-5-5-5-5-|
               
                                                               
Interlude with some kind of effect...I use a chorus pedal, but im not sure.

----------------------|
----------------------|
-7-----5--------------|
-7-----5-----7-----7--|x2
-5-----3-----7-----7--|
-------------5-----5--|
                                                                              
End of the second time of the Interlude.
---------------------------------|
---------------------------------|
---------------------------------|
-7-7-7-7-7-7-7-7-7-7-7-7-7-7-7-7-|
-7-7-7-7-7-7-7-7-7-7-7-7-7-7-7-7-|
-5-5-5-5-5-5-5-5-5-5-5-5-5-5-5-5-|
                                   

Thats all!

/HanMeGitarren
            
Submit corrections


        Ain't No Room lessons Hard to play? Try these video lessons and learn fast Ain't No Room lessons
        
↑ Back to top | Tablatures and chords for acoustic guitar and electric guitar, ukulele, drums are parodies/interpretations of the original songs. You may use it for private study, scholarship, research or language learning purposes only