» » »

Vines - 1969 Tabs

Artists:  A B C D E F G H I J K L M N O P Q R S T U V W X Y Z # 

1969 Tabs

(ver. 2) Click to play this song!
Vines
 Rating:
4/5 (4 votes)

 1969 lessons Tabs too difficult? Try these video lessons and learn fast
 
                1969 by The Vines


All G:s is Upstrokes in the intro...The chord sound just unbelieveble if you do. 
Its perfect to the song.
This is how I play the song.

Intro:
|---0-0------|  
|---0-0------|
|-0\1-1--0-0-|
|-0\2-2--0-0-| I dont know exactly how many times he plays it                
|-2-2-2--2-2-| but its more than 2, hehehe.
|-3\0-0--3-3-|


After he has played the intro a couple of times he plays this riff as the 
end of the Intro.
|-0-----0-----------------0-------|  
|-0-----0-----------------0-------|
|-0\1---0\1---------------1-------|
|-0\2---0\2---0\2-0\2-0\2-2-------|
|-2-2---2-2---2-2-2-2-2-2-2-------|
|-3\0---3\0---3\0-3\0-3\0-0-------|


Verse 1:
A                G      
Its 1969 in my head 
A                             C      G
I just wanna have no place to go    Oh oh
A                                G
Livin through the sound of the dead
A                                      C  
Im gonna get stoned look round at my soul  

Intro

Verse 2:
           A              
Im hearin voices in the trees
      C 
and seein footsteps in the rain
         G                          Em
I just wanna die before i loose my dol
          A
Ive been crying in my sleep 
               C
cause i dont know where i have been 
         G                           Em
i just wanna live to see another day


then comes this riff

  A               C                G                 Em
|--0--0--0--0-----0--0--0--0-------3--3--3--3--------0--0--0--0----------|
|---2--2--2--2-----1--1--1--1-------3--3--3--3--------0--0--0--0---------|
|----2--2--2--2-----0--0--0--0-------0--0--0--0--------0--0--0--0--------|
|------------------------------------------------------------------------|
|0--------------3--------------------------------------------------------|
|--------------------------------3----------------0----------------------|


Verse 3:
A
When i get my buick six
     G          
ill see my live drop in that whirl---pooool 
A  
if i get to see you again 
C
you're the only one i know 

Intro

then its just a time with feedback and just noice. The time when i like to jump around and spin and 
press on all my pedals and just enjoy.


Then after a while those riffs comes.
Riff1
|--------------------9~~~/10--| 
|--------------8--------------|
|-----------------------------|
|-----------------------------|
|-----------------------------|
|0~~~~~~~~--------------------|

Riff2
|-----------------|
|-----------------|
|-5\7-7-7-7-7-7-7-|
|-5\7-7-7-7-7-7-7-|x4
|-3\5-5-5-5-5-5-5-|
|-----------------|


Riff2 lead
|-----0----------------|
|------0--------7-7----|
|---------5/7-7----7-7-|
|----------------------|x3 after Riff 3
|----------------------|
|0---------------------|

 Riff3
|----0---0-0-0-0-4-4-0-0------0-------------------------------------|
|-----0------------------------0--------7-7-------------------------|
|---------------------------------5/7-7----7-7----------------------|x2
|-------------------------------------------------------------------|
|-------------------------------------------------------------------|
|-0------------------------0----------------------------------------|

Then it goes like that for a time then after that a long E comes again.
 
After that this little riff is played until it fades out.

|----------------------------------------------------------------------------------|
|---9-9----9-9------12--12-----12--12--------14--14----14--14-----10--10----10/11\10
|--9-9----9-9-----12--12-----12--12--------14--14----14--14-----10--10----10------|
|----------------------------------------------------------------------------------|
|7-----7--------10-------10------------12----------12---------8---------8---------|
|----------------------------------------------------------------------------------|



Enjoy this very good song with my very good tab.

/Daniel aka HanMeGitarren
            
Submit corrections


        1969 lessons Hard to play? Try these video lessons and learn fast 1969 lessons
        
↑ Back to top | Tablatures and chords for acoustic guitar and electric guitar, ukulele, drums are parodies/interpretations of the original songs. You may use it for private study, scholarship, research or language learning purposes only