» » »

Versaemerge - Fire (Aim Your Arrows High) Bass

Artists:  A B C D E F G H I J K L M N O P Q R S T U V W X Y Z # 

Fire (Aim Your Arrows High) Bass

(ver. 2) Click to play this song!
Versaemerge
 Rating:
3.4/5 (5 votes)


 Fire (Aim Your Arrows High) lessons Tabs too difficult? Try these video lessons and learn fast
 
                Tuning: EADG
Fire (Aim Your Arrows High)- VersaEmerge

INTRO:

G|------------------------------------------|
D|------------------------------------------|  
A|---------4-4-4-(X4)-3-3-3-(X2)-6-6-6-(X2)-|  X1
E|-0-0-0-(X8)-------------------------------|

VERSE:

G|------------------------------------------|
D|------------------------------------------|
A|---------3~------4~-----------------------|  X2
E|-0~---------------------------------------|

PRE-CHORUS:

G|------------------------------------------|
D|------------------------------------------|
A|---------3-3-3-(X3)-4-4-4-(X6)------------| X2
E|-0-0-0-(X3)-------------------------------|

CHORUS:

G|------------------------------------------|
D|------------------------------------------|  
A|---------4-4-4-(X4)-3-3-3-(X4)------------|
E|-0-0-0-(X8)-------------------------------|

G|------------------------------------------|
D|------------------------------------------|  
A|---------4-4-4-(X4)-3-3-3-(X2)-6-6-6-(X2)-|  
E|-0-0-0-(X8)-------------------------------|

VERSE:

G|------------------------------------------|
D|------------------------------------------|
A|---------3~------4~-----------------------|  X2
E|-0~---------------------------------------|

PRE-CHORUS:

G|------------------------------------------|
D|------------------------------------------|
A|---------3-3-3-(X3)-4-4-4-(X6)------------| X2
E|-0-0-0-(X3)-------------------------------|

CHORUS:

G|------------------------------------------|
D|------------------------------------------|  
A|---------4-4-4-(X4)-3-3-3-(X4)------------|
E|-0-0-0-(X8)-------------------------------|

G|------------------------------------------|
D|------------------------------------------|  
A|---------4-4-4-(X4)-3-3-3-(X2)-6-6-6-(X2)-|  
E|-0-0-0-(X8)-------------------------------|

BRIDGE:

G|-------------------------------------------|
D|----------2-2-2-(X8)-----------------------|
A|-3-3-3-(X8)---------3-3-3-(X8)-2-2-2-(X4)/-|
E|-------------------------------------------|

CHORUS:

G|------------------------------------------|
D|------------------------------------------|  
A|---------4-4-4-(X4)-3-3-3-(X4)------------|
E|-0-0-0-(X8)-------------------------------|

G|------------------------------------------|
D|------------------------------------------|  
A|---------4-4-4-(X4)-3-3-3-(X2)-6-6-6-(X2)-|  
E|-0-0-0-(X8)-------------------------------|

OUTRO:

G|------------------------------------------|
D|------------------------------------------|  
A|---------4-4-4-(X4)-3-3-3-(X4)------------|
E|-0-0-0-(X8)-------------------------------|

G|------------------------------------------|
D|------------------------------------------|  
A|---------4-4-4-(X4)-3-3-3-(X2)-6-6-6-(X2)-|  
E|-0-0-0-(X8)-------------------------------|
            
Submit corrections



        Fire (Aim Your Arrows High) lessons Hard to play? Try these video lessons and learn fast Fire (Aim Your Arrows High) lessons
        
↑ Back to top | Tablatures and chords for acoustic guitar and electric guitar, ukulele, drums are parodies/interpretations of the original songs. You may use it for private study, scholarship, research or language learning purposes only