» » »

Velvet Revolver - Pills Demons Etc Bass

Artists:  A B C D E F G H I J K L M N O P Q R S T U V W X Y Z # 

Pills Demons Etc Bass

(ver. 1) Click to play this song!
Velvet Revolver
 Rating:
4/5 (4 votes)
                Riff A
G--------------------|
D--------------------|
A-------3------------|
E-5-3-5---5----------|

Riff B
G---------------------|
D---------------------|
A-----3---------------|
E-5-3---2-2-3-4-------|

Riff C
G---------------------|
D---------------------|
A-----3-3-------------|
E-1-1-----3-3-5-5-----|

Riff D
G----------------------|
D----------------------|
A-5-5-3-3--------------|
E---------3-3-5-5------|

Riff E
G----------------------|
D----------------------|
A-------0--------------|
E-2-0-2---2------------|

Riff F
G----------------------|
D----------------------|
A----------------------|
E-5------3------2------|
            
Submit corrections

↑ Back to top | Tablatures and chords for acoustic guitar and electric guitar, ukulele, drums are parodies/interpretations of the original songs. You may use it for private study, scholarship, research or language learning purposes only