» » »

Vampire Weekend - White Sky Bass

Artists:  A B C D E F G H I J K L M N O P Q R S T U V W X Y Z # 

White Sky Bass

(ver. 1) Click to play this song!
Vampire Weekend
 Rating:
4/5 (4 votes)


 White Sky lessons Tabs too difficult? Try these video lessons and learn fast
 
                G----------------------------------|
D----------------------------------|
A----------5--5----7--7----9--9----|
E--5--5----------------------------| 8x
 
G---------------------------------|
D----------------------11---------|
A--5-----5----7-----7--------7----|
E-----7---------5-----------------| 8X
 
G----------------------------------|
D----------------------------------|
A----------5--5----7--7----9--9----|
E--5--5----------------------------|
 
G-----------------------------------------------------|
D--7-7-7-7-7-7----------------------------------------|
A--------------5-5-5-5-5-5-7-7-7-7-7-7----------------|
E--------------------------------------7-7-7-7-7-7----| 4x
 
G----------------------------------|
D----------------------------------|
A----------5--5----7--7----9--9----|
E--5--5----------------------------| 4x
 
G---------------------------------|
D----------------------11---------|
A--5-----5----7-----7--------7----|
E-----7---------5-----------------| 4X
 
G----------------------------------|
D----------------------------------|
A----------5--5----7--7----9--9----|
E--5--5----------------------------| 2x
 
G-----------------------------------------------------|
D--7-7-7-7-7-7----------------------------------------|
A--------------5-5-5-5-5-5-7-7-7-7-7-7----------------|
E--------------------------------------7-7-7-7-7-7----| 4x
 
G----------------------------------|
D----------------------------------|
A----------5--5----7--7----9--9----|
E--5--5----------------------------| 6x
 
G-----------------------------------------------------|
D--7-7-7-7-7-7----------------------------------------|
A--------------5-5-5-5-5-5-7-7-7-7-7-7----------------|
E--------------------------------------7-7-7-7-7-7----| 8x
            
Submit corrections



        White Sky lessons Hard to play? Try these video lessons and learn fast White Sky lessons
        
↑ Back to top | Tablatures and chords for acoustic guitar and electric guitar, ukulele, drums are parodies/interpretations of the original songs. You may use it for private study, scholarship, research or language learning purposes only