» » »

Vampire Weekend - Oxford Comma Tabs

Artists:  A B C D E F G H I J K L M N O P Q R S T U V W X Y Z # 

Oxford Comma Tabs

(ver. 2) Click to play this song!
Vampire Weekend
 Rating:
4/5 (4 votes)


 Oxford Comma lessons Tabs too difficult? Try these video lessons and learn fast
 
                Oxford Comma - Vampire Weekend


(guitar solo only)
     E            S  S  E   S  S  E   E   E   E   
E||--------------10-10-10--10-10-10--10--12--12--|
B||--------------12-12-12--12-12-12--12--12--12--|
G||--------------12-12-12--12-12-12--12--12--12--|
D||----------------------------------------------|
A||----------------------------------------------|
E||----------------------------------------------|


  Q     S  S  S  S  E   E   Q       Q     E   S  S  E   E   E   E   
-------15-15-15-15-15--14--15----|-------10--10-10-10--10--12--10--|
-------13--L--L--L--L--13--13----|-------12--12-12-12--12--12--12--|
---------------------------------|-------12--12-12-12--12--12--12--|
---------------------------------|---------------------------------|
---------------------------------|---------------------------------|
---------------------------------|---------------------------------|


  Q     S  S  S  S  E   E   E   E     Q     E   S  S  E   E   E   E   
-------15-15-15-15-15--14--12--14--|-------10--10-10-10--10--12--10--|
-------13--L--L--L--L--13---L------|-------12--12-12-12--12---x---x--|
-----------------------------------|-------12--12-12-12--12---x--12--|
-----------------------------------|---------------------------------|
-----------------------------------|---------------------------------|
-----------------------------------|---------------------------------|


  Q     S  S  S  S  E   E   Q       Q     E   S  S  E   E   E   E   
-------15-15-15-15-15--14--15----|-------10--10-10-10--10--12--10--|
-------13--L--L--L--L--13--13----|-------12--12-12-12--12--12--12--|
---------------------------------|-------12--12-12-12--12--12--12--|
---------------------------------|---------------------------------|
---------------------------------|---------------------------------|
---------------------------------|---------------------------------|


  Q     S  S  S  S  E   E   E   E     Q    E   Q.      Q     
-------15-15-15-15-15--14--12--14--|------------------------|
-------13--L--L--L--L--13---L------|------------------------|
-----------------------------------|-------0--12------12----|
-----------------------------------|------------------------|
-----------------------------------|------------------------|
-----------------------------------|------------------------|


   E.  E.   Q.     E   E      Q    E   Q.      Q     
--------------------------|-------------------------|
--------------------------|-------------------------|
--11---9-----------9--11--|--11----9----------------|
-----------12-------------|-----------12------10----|
--------------------------|-------------------------|
--------------------------|-------------------------|


  Q.      S  S Q    Q       Q    E   Q    Q     S  S  
-------------------------|---------------------------|
-------------------------|---------------------------|
--------------------0----|-------0--12---------12-12-|
--9------10p-9-7---------|---------------------------|
-------------------------|---------------------------|
-------------------------|---------------------------|


   E  Q     S  S  E   E  E   E      Q.      E   Q     Q     
--------------------------------|--------------------------|
--------------------------------|--------------10----------|
--12-------12-12-12--11--9--11--|--12------12--------12----|
--------------------------------|--------------------------|
--------------------------------|--------------------------|
--------------------------------|--------------------------|


   Q     Q    Q     Q      
-------------------------||
-------------------------||
--12----11----9----11----||
-------------------------||
-------------------------||
-------------------------||




Duration Legend
---------------
W - whole
H - half
Q - quarter
E - 8th
S - 16th
T - 32nd
X - 64th
. - note dotted
|-n-|  - n-tuplets


Tablature Legend
----------------
L - tied note
x - dead note
g - grace note
(n) - ghost note
> - accentuded note
NH - natural harmonic
AH - artificial harmonic
TH - tapped harmonic
SH - semi harmonic
PH - pitch harmonic
h - hammer on
p - pull off
b - bend
br - bendRelease
pb - preBend
pbr - preBendRelease
brb - bendReleaseBend
\n/ - tremolo bar dip
\n - tremolo bar dive
-/n - tremolo bar Release up
/n\ - tremolo bar inverted dip
/n - tremolo bar return
-\n - tremolo bar Release down
S - shift slide
s - legato slide
/ -  slide into from below or out of upwards
\ -  slide into from above or out of downwards
~ - vibrato
W - wide vibrato
tr - trill
TP - tremolo picking
T - tapping
S - slap
P - pop
< - fade in
^ - brush up
v - brush down
            
Submit corrections



        Oxford Comma lessons Hard to play? Try these video lessons and learn fast Oxford Comma lessons
        
↑ Back to top | Tablatures and chords for acoustic guitar and electric guitar, ukulele, drums are parodies/interpretations of the original songs. You may use it for private study, scholarship, research or language learning purposes only