» » »

Vampire Weekend - M79 Bass

Artists:  A B C D E F G H I J K L M N O P Q R S T U V W X Y Z # 

M79 Bass

(ver. 2) Click to play this song!
Vampire Weekend
 Rating:
4/5 (4 votes)


 M79 lessons Tabs too difficult? Try these video lessons and learn fast
 
                Hi, I learnt this by ear. I hope you enjoy playing the song as much as I do! :P

Intro - just strings until 0:08

G|---------------------------------------------------------------|
D|---------------------------------------------------------------|
A|--------------55--55--5555555----------------------------------|
E|55-557700-0055---5---5-----------------------------------------|

G|---------------------------------------------------------------|
D|---------------------------------------------------------------|
A|-55-5-----------55-5------------------------55-55-5555555------|
E|3--3-3200-0022-3--3-3200-0022-55-557700-0055--5--5-------------|

Verse 1

G|---------------------------------------------------------------|
D|---------------------------------------------------------------|
A|-55-5-----------55-5------------------------55-55-5555555------|x2
E|3--3-3200-0022-3--3-3200-0022-55-557700-0055--5--5-------------|

G|---------------------------------------------------------------|
D|------2----------------2---------------------------------------|
A|35--35--35--35---35--35--35--35--------------------------------|
E|--------------3----------------3-------------------------------|

G|---------------------------------------------------------------|
D|---------------------------------------------------------------|
A|-55-5-----------55-5-------------------------------------------|
E|3--3-3200-0022-3--3-3200-0022----------------------------------|

Verse 2

G|---------------------------------------------------------------|
D|---------------------------------------------------------------|
A|-55-5-----------55-5------------------------55-55-5555555------|x2
E|3--3-3200-0022-3--3-3200-0022-55-557700-0055--5--5-------------|

G|---------------------------------------------------------------|
D|------2----------------2---------------------------------------|
A|35--35--35--35---35--35--35--35--------------------------------|
E|--------------3----------------3--33333333---------------------|

Bridge - "No excuse to be so callous, dress yourself in bleeding madras" :)

G|---------------------------------------------------------------|
D|---------------------------------------------------------------|
A|33335555--------33335555--------33335555--------33335555-------|
E|--------33335555--------33333333---------33335555--------------|

Chorus/Verse - not sure what it is

G|---------------------------------------------------------------|
D|---------------------------------------------------------------|
A|-55-5-----------55-5------------------------55-55-5555555------|
E|3--3-3200-0022-3--3-3200-0022-55-557700-0055--5--5-------------|

G|---------------------------------------------------------------|
D|------2----------------2---------------------------------------|
A|35--35--35--35---35--35--35--35--------------------------------|
E|--------------3----------------3-------------------------------|

G|---------------------------------------------------------------|
D|---------------------------------------------------------------|
A|33335555--------33335555--------33335555--------33335555-------|
E|--------33335555--------33333333---------33335555--------------|

Outro

G|---------------------------------------------------------------|
D|---------------------------------------------------------------|
A|-55-5-----------55-5-------------------------------------------|
E|3--3-3200-0022-3--3-3200-0022-3--------------------------------|


The tab's pretty simple! You can follow me on Twitter: @TattyBojangles7 or Marla Kether :D
            
Submit corrections



        M79 lessons Hard to play? Try these video lessons and learn fast M79 lessons
        
↑ Back to top | Tablatures and chords for acoustic guitar and electric guitar, ukulele, drums are parodies/interpretations of the original songs. You may use it for private study, scholarship, research or language learning purposes only