Home » U » Used »

Used - Greener With The Scenery Bass

Artists:  A B C D E F G H I J K L M N O P Q R S T U V W X Y Z # 

Greener With The Scenery Bass

(ver. 3) Click to play this song!
Used
Band- The Used
Album- The Used
Song- Greener With The Scenery
Bassist- Jeph Howard

Pretty simple

0:00-
G:-------------------|       G:-------------------|
D:-------10------7---|       D:-------------------|
A:-0~--8----8--5---5-|  X7   A:0~----3------------|
D:-------------------|       D:----3---3--0-7-0---|

0:35-
G:--------------------|
D:--------------------|
A:3-3-------3-3-------|
D:----33-33-----55-55-|

0:44-
G:------------------------|
D:----7-7----10------7----|
A:--57-----8----8--5---5--|
D:7-----------------------|


G:------------------------------------------------75---|
D:--77-7----10------7--------7-7---10------7-----------|
A:--------8----8--5---5----57----8----8--5---5---------|
D:7----------------------7----------------------7----3~|

1:01-
G:-------------------|
D:-------------------|
A:-------------------|  X3  (Try and swing last 3 beats)
D:3-3-3-33-0-0-2-2-2-|


G:-----------------------|
D:-----------------------|
A:1-1111-3-3333-5-5555-7/|
D:-----------------------|

1:09-no bass
1:26-
G:-----------------|      |------------------------|
D:--10------7------|      |-5h7-7-7---10---0-------|
A:8----8--5---5--0~|  X2  |---------8----8---------|
D:-----------------|      |-----------------10-8-7~|

G:---------5-4---7-5-4--7h9--7---------------------|
D:---777---7---7--------------10~------------------|
A:5h7--------------------------------3-------------|
D:---------------------------------1---1--0-7-0--3~|

1:50-
G:-------------------|
D:-------------------|
A:-------------------|  X3
D:3-3-3-33-0-0-2-2-2-|

G:-------------------------------------------------|
D:--10------10-----------------------------------8/|
A:8----8--8----8-----------------------------------|
D:---------------0-0-2-2-2---8-8888-8-8888-8-8888--|

2:07-
G:------------------|     G:-------------------------------------|
D:------10------7---|     D:---777---10------7-------7-5---------|
A:0~--8----8--5---5-| X3  A:-------8----8--5---5---------8-7-5-3-|
D:------------------|     D:7~-------------------7~--------------|

2:29- (listen VERY carefully to this part, if you can't get it, just fill)
G:--------------------------------|
D:--------------------------------|
A:0~------------------------------|  (Don't get confused by bass drum!)
D:------33~--3-33-2--0---3-33-2--0|

3:00-
G:------------------|       G:------------------------------|
D:------------------|       D:------------------------------|
A:------------------|  X3   A:------------------------------|
D:3-3-3-33-0-0-2-2-2|       D:8-8888--8-8888--8-8888--8-8888|

3:18- (Favourite part)
G:------------------------------------------|
D:----1010--------1010--------77--------77--|
A:8-8-----8---8-8-----8---5-5---5---5-5---5-| X3
D:------------------------------------------|

3:31
G:----------------------------------|
D:----------------------------------|
A:----------------------------------|
D:8-8888--8-8888--8-8888--8-8888--8-|
            
Submit corrections

↑ Back to top | Tablatures and chords for acoustic guitar and electric guitar, ukulele, drums are parodies/interpretations of the original songs. You may use it for private study, scholarship, research or language learning purposes only