Home » U » Used »

Used - Greener With The Scenery Tabs

Artists:  A B C D E F G H I J K L M N O P Q R S T U V W X Y Z # 

Greener With The Scenery Tabs

(ver. 3) Click to play this song!
Used
-------5-5p3p0------0-----------0-------------0--------------------------------------
---------------5-----5---0-2-5----5---0-2-0------------------------------------------
-0-0---------0-----------------------------------------------------------------------

-------3-5p3p0------0-----------0-------------0--------------------------------------
---------------5-----5---0-2-5----5---0-2-0------------------------------------------
-0-0---------0-----------------------------------------------------------------------
love th@ tune!!

almost heavy bit
--3---------------
--3---------------
--5---------------
--5---------------
--3---------------
--3---------------


heavy bit
--3------5---7-----------------------------------
--3------5---7-----------------------------------
--5------7---9-----------------------------------
--5------7---9-----------------------------------
--3------5---7-----------------------------------
--3------5---7-----------------------------------
            
Submit corrections

↑ Back to top | Tablatures and chords for acoustic guitar and electric guitar, ukulele, drums are parodies/interpretations of the original songs. You may use it for private study, scholarship, research or language learning purposes only