Home » U » Used »

Used - Greener With The Scenery Tabs

Artists:  A B C D E F G H I J K L M N O P Q R S T U V W X Y Z # 

Greener With The Scenery Tabs

(ver. 2) Click to play this song!
Used
Greener with the Scenery
The Used
Omnifreak102

The Used has two guitarists on this song, but this tab is arranged for one.  It still sounds full.  Enjoy.

Intro/Verse
E|------------------------------------------------------------------|
B|------5---5p3-3-0-------------------1---1-------------------------|
G|----------------------4---4h5-------------2-------------0---0h2---|
D|---------------------------------------------3--------3---3-------|
A|--0---------------0---------------0---------------0---------------|
D|------------------------------------------------------------------|

Chorus riff (1st time w/out dist.)
E|-------------------------------------------------------|
B|-------------------------------------------------------|
G|--5---5-5-5-5-5---5-5-5-5-2---2-2-2-2-4---4-4-4-4------|
D|--3---3-3-3-3-3---3-3-3-3-0---0-0-0-0-2---2-2-2-2------|
A|--3---3-3-3-3-3---3-3-3-3-0---0-0-0-0-2---2-2-2-2------|
D|--3---3-3-3-3-3---3-3-3-3-0---0-0-0-0-2---2-2-2-2------|
            
Submit corrections

↑ Back to top | Tablatures and chords for acoustic guitar and electric guitar, ukulele, drums are parodies/interpretations of the original songs. You may use it for private study, scholarship, research or language learning purposes only