» » »

Unwritten Law - Your My Angel Bass

Artists:  A B C D E F G H I J K L M N O P Q R S T U V W X Y Z # 

Your My Angel Bass

(ver. 2) Click to play this song!
Unwritten Law
 Rating:
4/5 (4 votes)


 Your My Angel lessons Tabs too difficult? Try these video lessons and learn fast
 
                Intro
G|8--8--8----6--6--6----4--4--4----3--3--3----4--4--4----3--3--3-------|
D|-99-99-9----88-88-8----66-66-6----44-44-4----66-66-6----44-44-4------|
A|---------------------------------------------------------------------|
E|---------------------------------------------------------------------|

(intro continued)
G|-4--4--4----3---3-----|
D|--66-66-6----444-222--|
A|----------------------|
E|----------------------|

Bridge(:18)                         fill
G|-8>--11>--8>--6>--4>--8>--6>-----86--686--6--------|
D|-----------------------------------8----8----------|
A|---------------------------------------------------|
E|---------------------------------------------------|

Verse(:36)
G|------------------|
D|------------------|
A|-6>--9>--6>--4>---|
E|------------------|

Verse 2(:54)
G|----------------------------|
D|----------------------------|
A|-6>-9>-11>-9>-7>-9>---------|
E|----------------------------|

Verse 3(1:04)
G|------------------|
D|------------------|
A|-11>-9>-7>-9>-----|
E|------------------|

Chorus(1:12)
G|-----------------------------|
D|-----------------------------|
A|-6-66------------------------|
E|------4-44--8-88--6-66-------|

Break(1:22)
G|--------|
D|--------|
A|-7>-9>--|
E|--------|


> = play many times


in the bridge i thought it would sound cool if you just followed the guitar
            
Submit corrections



        Your My Angel lessons Hard to play? Try these video lessons and learn fast Your My Angel lessons
        
↑ Back to top | Tablatures and chords for acoustic guitar and electric guitar, ukulele, drums are parodies/interpretations of the original songs. You may use it for private study, scholarship, research or language learning purposes only