» » »

Unwritten Law - Walrus Bass

Artists:  A B C D E F G H I J K L M N O P Q R S T U V W X Y Z # 

Walrus Bass

(ver. 1) Click to play this song!
Unwritten Law
 Rating:
4/5 (4 votes)


 Walrus lessons Tabs too difficult? Try these video lessons and learn fast
 
                Ok So this is technically half step dwon but I hate tuning it just for that so here's 
tuning style

Unwritten Law
Walrus
Here's to The Mourning
EADG



Intro X1
G]-------------------|
D]-----------------4-|
A]-------------4-6---|
E]9/2-2-2-4-5-6------|


This is The same part just take out the beginning after the first time.X5
G]---------------|
D]-------------4-|
A]---------4-6---|
E]2-2-4-5-6------|


VerseX3
G]-----------------|
D]--------1111-----|
A]----1111----2222-|
E]2222-------------|


Do this at the end of the 3rd time, right before the chorusX1
G]-----------------|
D]-----------------|
A]--------44444444-|
E]44444444---------|


ChorusX2
G]-----------------------------------|
D]--------1111-----------------------|
A]----1111----4444-2222----2222-4444-|
E]2222-----------------2222----------|


That's it. You can figure out the timing yourself

Peace Ya'll
            
Submit corrections



        Walrus lessons Hard to play? Try these video lessons and learn fast Walrus lessons
        
↑ Back to top | Tablatures and chords for acoustic guitar and electric guitar, ukulele, drums are parodies/interpretations of the original songs. You may use it for private study, scholarship, research or language learning purposes only