» » »

Unwritten Law - Teenage Suicide Bass

Artists:  A B C D E F G H I J K L M N O P Q R S T U V W X Y Z # 

Teenage Suicide Bass

(ver. 1) Click to play this song!
Unwritten Law
 Rating:
4/5 (4 votes)


 Teenage Suicide lessons Tabs too difficult? Try these video lessons and learn fast
 
                Tune half a step down. D# G# C# F#
Let the Guitar do its awesome thing first.

Intro  x1
F|-----------------|
C|---------9>-797--|
G|---------------9-|
D|13\7>------------|

Main riff  x1
F|----------------------------------------|
C|-----------------------79>-7>-5>--4-----|
G|---------------------79-----------------|
D|7>--5>-3>--2-0>--7>------------------0>-|

Verse  x1
F|---------------------------------------------|
C|---------------------------------------------|
G|------------------55-------5579-10>--910-12>-|
D|7>----3>--5>--7>----75-7>--------------------|

Main riff (Variation)  x1
F|-----------------------|
C|------79>-7>-5>--4-----|
G|----79-----------------|
D|7>------------------0>-|

Verse x1

Chorus  x1
F|----------------------------------------------|
C|----------------------------------------------|
G|------------5>-------------9>-----9-9-9-9-9-9-|
D|3>--7>--3>-----5>--3>--7>-----2>--------------|

Main Riff  x1

Bridge  x1
F|-----------------------------|
C|-----------------------------|
G|-----------------------------|
D|7>--5>-3>--0>--7>--5>-3>--0>-|

Chorus  x1

End
F|-------------------|
C|---------9>--9979\-|
G|-------------------|
D|13\7>--------------|

Please rate and comment if you want. Pretty much perfect i think.
I tabbed this one off the hit list and cant remember
if its the same as the old one. i lost all my UL songs except
for hit list and havent gotten around to gettin them back. Perfect for the hit list 
for sure.
            
Submit corrections



        Teenage Suicide lessons Hard to play? Try these video lessons and learn fast Teenage Suicide lessons
        
↑ Back to top | Tablatures and chords for acoustic guitar and electric guitar, ukulele, drums are parodies/interpretations of the original songs. You may use it for private study, scholarship, research or language learning purposes only