» » »

Unwritten Law - Sorry Bass

Artists:  A B C D E F G H I J K L M N O P Q R S T U V W X Y Z # 

Sorry Bass

(ver. 1) Click to play this song!
Unwritten Law
 Rating:
4/5 (4 votes)


 Sorry lessons Tabs too difficult? Try these video lessons and learn fast
 
                ++++++++++++++++++++++++
| Unwritten Law- Sorry |
++++++++++++++++++++++++


"And girl you look so good, I really think we should..."


Tuning: EADG



Intro
1.
G|---------------------------------------------------------------------------|
D|---------------------------------------------------------------------------|
A|-2-202020-2-202020-2-202020-----------2-202020-2-202020-2-202020-----------|--x2
E|----------------------------0-00-2-22----------------------------0-00-2-22-|

Verse
"Afraid it comes to this..."
2.
G|---6-9-6----2----4----6-9-6----2----4----6-9-6----2-5-2----4-7-4-7-4-------|
D|-77-7-7-7-33-3-55-5-77-7-7-7-33-3-55-5-77-7-7-7-33-3-3-3-55-5-5-5-5-5-2222-|
A|---------------------------------------------------------------------------|--x2
E|---------------------------------------------------------------------------|

Chorus
"Slow down boy Im not easy..."
3.
G|-------------------------------------------------------------------------|
D|-------------------22222222-22222222-99999999-99999999-22222222-22222222-|
A|-22222222-22222222-------------------------------------------------------|
E|-------------------------------------------------------------------------|

"So I showed her to the door..."
4.
G|-------------------------------------|
D|-------------------22222222-22222222-|
A|-00000000-00000000-------------------|
E|-------------------------------------|

"And Im not sorry..."
5.
G|---------------------------------------------------------------------------|
D|---------------------------------------------------------------------------|
A|-2-202020-2-202020-2-202020-----------2-202020-2-202020-2-202020-----------|--x2
E|----------------------------0-00-2-22----------------------------0-00-2-22-|

Verse
"And girl you look so good..."
6.
G|---6-9-6----2----4----6-9-6----2----4----6-9-6----2-5-2----4-7-4-7-4-------|
D|-77-7-7-7-33-3-55-5-77-7-7-7-33-3-55-5-77-7-7-7-33-3-3-3-55-5-5-5-5-5-2222-|
A|---------------------------------------------------------------------------|--x2
E|---------------------------------------------------------------------------|

Chorus
"Slow down boy Im not easy..."
7.
G|-------------------------------------------------------------------------|
D|-------------------22222222-22222222-99999999-99999999-22222222-22222222-|
A|-22222222-22222222-------------------------------------------------------|
E|-------------------------------------------------------------------------|

"So I showed her to the door..."
8.
G|-------------------------------------|
D|-------------------22222222-22222222-|
A|-00000000-00000000-------------------|
E|-------------------------------------|

Bridge
"Then she was in front of me..."
9.
G|-----------------6-----------------------------------6--------------------|
D|------------3-4-6--44444444-44444644------------3-4-6--44444444-444444644-|
A|-44444444-4--------------------------44444444-4---------------------------|
E|--------------------------------------------------------------------------|

"Took me and threw me..."
10.
G|---------------------------------------------------------------------------|
D|-------------------------------------2222-2222-2222-2222-22222222-22222222-|
A|-22222222-22222222---------------------------------------------------------|
E|-------------------22222222-22222222---------------------------------------|

Outro
"Im not sorry..."
11.
G|---------------------------------------------------------------------------|
D|---------------------------------------------------------------------------|
A|-2-202020-2-202020-2-202020-----------2-202020-2-202020-2-202020-----------|--x2
E|----------------------------0-00-2-22----------------------------0-00-2-22-|

12.
G|------|
D|------|
A|-2-2x-|
E|------|

Please rate thanks!!


Lyrics:

Afraid it comes to this
I really must admit, your tits, your eyes, your lips 
Are staring at me
I'm drooling at the chin
I need to be within, her skin, I want to sin
She stops me and she says

Slow down boy, I'm not easy
Don't wanna be a sleazy whore
So I showed her to the door
Overabundancy, and I'm not sorry

And girl, you look so good
I really think we should, your hood, with me, I would
So let's get started
I know I can't resist
I reach over for a kiss, I miss, she ducks, I wish
She gets up and she says...

Then there she was in front of me
And it was very plain to see
She had this gleeming in her eye
Told me that she's down for the crime
Took me and threw me on the floor
As she screamed and begged for more

She said
I'm not sorry
No, I'm not sorry 



+++++++++++++++++++++++++++++++++
| Raileff                       |
+++++++++++++++++++++++++++++++++
            
Submit corrections



        Sorry lessons Hard to play? Try these video lessons and learn fast Sorry lessons
        
↑ Back to top | Tablatures and chords for acoustic guitar and electric guitar, ukulele, drums are parodies/interpretations of the original songs. You may use it for private study, scholarship, research or language learning purposes only