» » »

Unwritten Law - Slow Dance Bass

Artists:  A B C D E F G H I J K L M N O P Q R S T U V W X Y Z # 

Slow Dance Bass

(ver. 1) Click to play this song!
Unwritten Law
 Rating:
4/5 (4 votes)


 Slow Dance lessons Tabs too difficult? Try these video lessons and learn fast
 
                Tune Half a step down D# G# C# F#

Wait till after he says
"We gotta dance dance dance to the end of the show"

Intro
F|------|
C|------|
G|------|
D|00023-

Verse x4
F|------------------|
C|------------------|
G|------------------|
D|0-002233--0002233-|

Pre Chorus  x2
F|------------------------------------|
C|------------------------------------|
G|------------------------------------|
D|333-0-33-555-000-3-0-3-5-0>-3-0-3-5-|

Chorus  x1
F|------------------------------------------------|
C|------------------------------------------------|
G|-----7----7\-----5>--------------------7----7-9-|
D|0000----0----5>------333-333/-7>--0000----0-----|

F|-----------------------------|
C|--9-97-7---9-97-7------------|
G|00-0--7--00-0--7--3>--5>--2>-|
D|-----------------------------|

Verse  x8

Pre Chorus  x2

Chorus  x1
F|------------------------------------------------|
C|------------------------------------------------|
G|-----7----7\-----5>--------------------7----7-9-|
D|0000----0----5>------333-333/-7>--0000----0-----|

F|-----------------------------------------|
C|--9-97-7---9-97-7------------------------|
G|00-0--7--00-0--7--3>--5>--7>---2-3>--5>--|
D|-----------------------------------------|

Bridge
part 1  x1
F|-----------------|
C|-----------------|
G|-----------------|
D|0---00---00---00-|

part 2  x6
F|--------------------------|
C|--------------------------|
G|--------------------------|
D|333-0-3-0-3-5-33333-0-3-5-|

Chorus  x1 (Same as the second one)

Finish with bridge part 1.

Please rate and comment if ya want. Dont no if the verse
and pretty much everything is completely correct
but it sounds preety good, it all fits well. Chorus is perfect
which is the best bit so thats all that matters gotta
love that fill. Cheers.
            
Submit corrections



        Slow Dance lessons Hard to play? Try these video lessons and learn fast Slow Dance lessons
        
↑ Back to top | Tablatures and chords for acoustic guitar and electric guitar, ukulele, drums are parodies/interpretations of the original songs. You may use it for private study, scholarship, research or language learning purposes only