» » »

Unsane - Ha Ha Ha Bass

Artists:  A B C D E F G H I J K L M N O P Q R S T U V W X Y Z # 

Ha Ha Ha Bass

(ver. 1) Click to play this song!
Unsane
 Rating:
4/5 (4 votes)
    Ha Ha Ha lessons Tabs too difficult? Try these video lessons and learn fast
                Artist - Unsane
Album - Wreck
Song - Ha Ha Ha
Year - 2012
Bassist - Dave Curran

This song is a cover of Flippers "Ha Ha Ha" from their 1984 album Blow N' Chunks.

The main riff - intro/verse/post chorus is this:

G|-----------------|------------------|
D|-----------------|------------------|
A|-5-5-5-5---------|-3-3-3-3----------|
D|---------6-6-6-6-|----------4-4-4-4-|

There is then another riff which is played during the chorus i.e. the ha ha ha ha ha 
part. It is:

G|-----------------|-----------------|
D|-----------------|-4-4-4-4-3-3-3-3-|
A|-2-2-2-2-1-1-1-1-|-2-2-2-2-1-1-1-1-|
D|-----------------|-----------------|

The notes are B and then Bb. You can either play the roots or the chords. I think the 
chords is better.

That is the whole song.

Enjoy.
            
Submit corrections

↑ Back to top | Tablatures and chords for acoustic guitar and electric guitar, ukulele, drums are parodies/interpretations of the original songs. You may use it for private study, scholarship, research or language learning purposes only