» » »

Unleashed - Dark One Tabs

Artists:  A B C D E F G H I J K L M N O P Q R S T U V W X Y Z # 

Dark One Tabs

(ver. 2) Click to play this song!
Unleashed
 Rating:
4/5 (4 votes)


 Dark One lessons Tabs too difficult? Try these video lessons and learn fast
 
                Taken from Album ''Where No Life Dwells''
Year 1991

Listen closely for riff order 
Tuning: 2.5 steps down (B)


Intro                Riff 1
|-------------------|  |-----------------|
|-------------------|  |-----------------|
|-------------------|  |-----------------|
|-------------------|  |-----------------|
|--/6--2---2~---1~--|  |-3-6-2---2~---1~-|
|--/4--0------------|  |-1-4-0-----------|

Riff 2 Verse                  
|----------------------------------------|  
|----------------------------------------|  
|----------------------------------------|  
|----------------------------------------|  
|----------------------------------33----|  
|-00000001100001144-000000011000011------|


Riff 3 Chorus
|------------------|
|------------------|
|---------3333-----|
|-22223355----5533-|
|------------------|
|------------------|

Riff 4 First Guitar
|----------------------------------|
|----------------------------------|
|----------------------------------|
|----------------------------------|
|----------------------------------|
|-00001144000011330000114433331111-|

Riff 4  Second Guitar x1
|----------------------------------|
|----------------------------------|
|----------------------------------|
|-------------------------5~--3~---|
|-2-------2-------2----------------|
|-0-------0-------0----------------|

Riff 4b Second Guitar played with Riff 4 on First

|----------------------------------|
|----------------------------------|
|----------------------------------|
|-22223366222233552222336655553333-|
|----------------------------------|
|----------------------------------|

Riff 5
|----------------------------------------------------------------------|
|----------------------------------------------------------------------|
|----------------------------------------------------------------------|
|---------------------------776666-------------------------------------|
|-5544--445544----5544--4455------5544--445544----5544--44555588888888-|
|-----55------5555----55--------------55------5555----55---------------|

Riff:6
|-------------------------------------|
|-------------------------------------|
|-------------------------------------|
|-------------------------------------|
|-2-/7-/10-/3-2-/7-/10----------------|
|-0-----------0--------8--------------|

Riff:7            
|-----------------|
|-----------------|
|-----------------|
|-----------------|
|-2-2-3-2-2-7-8-7-|
|-0-------0-------|

Riff 8
|-----------------------------------------------------------------------------|
|-----------------------------------------------------------------------------|
|-----------------------------------------------------------------------------|
|-----------------------------------------3-2-----------------------------3-2-|
|2----2----2--------5-------2----2----2h3-----2----2--------5-----2----2h3----|
|0-00-0-00-0-00-5-6---6-5---0-00-0-00---------0-00-0-00-5-6---6-5-0-00--------|

End  After Riff 5  
|--------|
|--------|
|--------|
|--------|
|-2------|
|-0------| 

Victorious the olog-hai
Slow you'll die - the dark one smiles
            
Submit corrections



        Dark One lessons Hard to play? Try these video lessons and learn fast Dark One lessons
        
↑ Back to top | Tablatures and chords for acoustic guitar and electric guitar, ukulele, drums are parodies/interpretations of the original songs. You may use it for private study, scholarship, research or language learning purposes only