» » »

Underoath - Youre So Intricate Bass

Artists:  A B C D E F G H I J K L M N O P Q R S T U V W X Y Z # 

Youre So Intricate Bass

(ver. 1) Click to play this song!
Underoath
 Rating:
4/5 (4 votes)


 Youre So Intricate lessons Tabs too difficult? Try these video lessons and learn fast
 
                                           ~You're So Intricate~
                                 Underøath

Tuning: Dropped D

The Notes are right, the rhythm might not be. I tried as best I could to match the notes 
the beat of the drums because you can't really hear the bass but it might not be 
accurate.

Like I said,
Leave your baggage at the back door.
G|---------------------------------------------------------------------|
D|---------------------------------------------------------------------| x2
A|00-0000-0-0000-00-0000-0-0000-44-444-44-444-22-2222-2-222------------|
D|---------------------------------------------------------------------|

How does it feel to be on the receiving end?
of this one?
G|------------------------------------------------------------------------|
D|------------------------------------------------------------------------|
A|00-000-00-0000-22-222-22-222-00-000-00-0000-22-2-222222222222-----------|
D|------------------------------------------------------------------------|

This night will swell with us.
This night will run with us.
(This next part you can either play:)
G|---------------------------------------------------------------------|
D|---------------------------------------------------------------------| x2
A|44-4444-4-444-44-4444-4-44-2-00-000----------------------------------|
D|------------------------------------3-3-333-1-1-111-00-0000----------|

OR

G|---------------------------------------------------------------------|
D|---------------------------------------------------------------------| x2
A|44-4444-4-444-44-4444-4-44-2-00-000---------0-0-000------------------|
D|------------------------------------3-3-333---------33-3333----------|

Run with us.
Feast your eyes.
G|------------------------------------------------------------------------|
D|------------------------------------------------------------------------|
A|0-0-0-------0-0-0-2-2-2/4/2--0-0-0-------4444-2-2-----------------------|
D|------3-3-3------------------------3-3-3--------------------------------|


I’ll fanaticize of being manic.
G|-------------------------------------------------------------------------|
D|-------------------------------------------------------------------------|
A|0-0-000-0-4-2--0-0-0000-0-000-00-0000-0-000-44-4444-4-444-2-2-222-2-2-222|
D|-------------------------------------------------------------------------|

This is the meaning that we all live for.
G|------------------------------------------------------------------------|
D|------------------------------------------------------------------------|
A|0000000000-22222222-00000000-22222222-----------------------------------|
D|------------------------------------------------------------------------|

This night will swell with us.
(This next part you can either play:)
G|---------------------------------------------------------------------|
D|---------------------------------------------------------------------| x2
A|44-4444-4-444-44-4444-4-44-2-00-000----------------------------------|
D|------------------------------------3-3-333-1-1-111-00-0000----------|

OR

G|---------------------------------------------------------------------|
D|---------------------------------------------------------------------| x2
A|44-4444-4-444-44-4444-4-44-2-00-000---------0-0-000------------------|
D|------------------------------------3-3-333---------33-3333----------|

Feast your eyes. I don’t care.
G|-----------------------------------------------------------------------|
D|-----------------------------------------------------------------------|
A|0-0-0-------0-0-0-2-2-2/4/2--0-0-0-------4-4-4-2-2-2-------------------|
D|------3-3-3------------------------3-3-3-------------------------------|

I can’t see past your waiving hands.
G|---------------------------------------------------------------------|
D|---------------------------------------------------------------------| x2
A|0-0-000--------4-4-444-2-2-2222--------------------------------------|
D|-------3-3-3333------------------------------------------------------|

G|----------------------------------------------------------------------|
D|----------------------------------------------------------------------|
A|0-------------4444444-0-------------4444444-0-------------4444--------|
D|----------------------------------------------------------------------|

You think so loud it hurts my ears.
(Repeat this until the end of the song:)
G|----------------------------------------------------------------------|
D|----------------------------------------------------------------------|
A|0-------------4444444-0-------------4444444---------------------------|
D|----------------------------------------------------------------------|

~Lyrics~
Like I said,
Leave your baggage at the back door.
I’m leaving you the way I think it should be.
We’re always pulling into spaces,
That we can’t back out of.
Starting fights, we can’t talk our way out of them,
talk our way out of them, talk our way out of them.
Yeah.
How does it feel to be on the receiving end?
of this one? of this one?
This night will swell with us.
This night will run with us.
This is our last surviving chance. I wanna survive!
This night will swell with us.
This night will run with us.
This is our last surviving chance. I wanna survive!
Run with us.
Feast your eyes.
I don’t care.
Run with us.
I’ll fanaticize of being manic.
Leaving us behind.
In your eyes, you were the one that tried.
Acceptance is what holds us here.
You, my dear, are the one I fear tonight.
We’ll try this one more time.
This is the meaning that we all live for.
Are you ready? Are you ready?
This night will swell with us.
This night will run with us.
This is our last surviving chance. I wanna survive!
This night will swell with us.
This night will run with us.
This is our last surviving chance. I wanna survive!
Run with us.
Feast your eyes.
I don’t care.
I don’t care.
Run with us. ( I don’t …care)
And I’ll never care.
I can’t see past your waiving hands.
Just run away again.
I can’t see past your waiving hands.
Just run.
You think so loud it hurts my ears.
I want to know how to get through this. How to get through this.
Without chocking up.
I want to know how to get through this. How to get through this.
Without chocking up.
I can’t feel you.
You’re too far,
            
Submit corrections



        Youre So Intricate lessons Hard to play? Try these video lessons and learn fast Youre So Intricate lessons
        
↑ Back to top | Tablatures and chords for acoustic guitar and electric guitar, ukulele, drums are parodies/interpretations of the original songs. You may use it for private study, scholarship, research or language learning purposes only