» » »

Underoath - Writing On The Walls Bass

Artists:  A B C D E F G H I J K L M N O P Q R S T U V W X Y Z # 

Writing On The Walls Bass

(ver. 3) Click to play this song!
Underoath
 Rating:
4/5 (4 votes)


 Writing On The Walls lessons Tabs too difficult? Try these video lessons and learn fast
 
                UNDEROATH: DEFINE THE GREAT LINE
WRITING ON THE WALLS	

this is a great song by a great band, its 99% correct as far as i can tell.


Tuning: DADG	

0:20   
|-------------------------------------------------|
|-------------------------------------------------|
|-5-x16-------------------------------------------|   X2
|------------5-x16-------8-x16-------10-x16-------| 


0:41
|------------------------------------------|
|------------------------------------------|
|-5--8--7~-------5-----3~------------------|  X2
|-------------------5----------------------|


1:02
|-------------------------------------------------------------| 
|-------------------------------------------------------------|
|-------------------------------------------------------------|  X2
|-22---2-----22----222222-3333333333333333-55555555-77777777--|
(listen careful for timing)

1:23
|---------|
|---------|
|---------|   X7
|-0-0-0---|


1:57
|----------------------------------|
|----------------------------------|
|----------------------------------|   X2
|-8-5-0~------0-2-3~-----0-0-0~----|


2:18
|----------------------------|
|----------------------------|
|----------------------------|
|-8-5-0~-----0-2-3~-----0~---|

2:28
|--------------------------------------------|
|--------------------------------------------|
|--------------------------------------------|  X3
|-8-5-0~------0-2-3~-----0-0-0~-----0-0-0~---|


3:00
|-------|
|-------|
|-------|
|-0~~---| 

there is no bass in the break down just tim(guitar) and chris(keys)

3:36
|--------------------------------------------------------------|
|--------------------------------------------------------------|
|--------------------------------------------------------------|
|-000----0000-----000-----000000----000---0000---000---00x0~~--| 

THE END, have fun
            
Submit corrections



        Writing On The Walls lessons Hard to play? Try these video lessons and learn fast Writing On The Walls lessons
        
↑ Back to top | Tablatures and chords for acoustic guitar and electric guitar, ukulele, drums are parodies/interpretations of the original songs. You may use it for private study, scholarship, research or language learning purposes only