» » »

Underoath - Writing On The Walls Bass

Artists:  A B C D E F G H I J K L M N O P Q R S T U V W X Y Z # 

Writing On The Walls Bass

(ver. 1) Click to play this song!
Underoath
 Rating:
4/5 (4 votes)


 Writing On The Walls lessons Tabs too difficult? Try these video lessons and learn fast
 
                Writing on the Walls
UnderØath

Drop D tuning
h = hammer
/ = slide

This is my first tab, but I saw many wrong tabs and worked getting this one right. Try 
out and feel free to leave me any comments.

Post Intro
0:20   “I swear we need to find some comfort…”
|----------------------------------------------------------------------------|
|----------------------------------------------------------------------------|
|-5555555555555555-----------------------------------3333333333333333--------|   x2
|------------------5555555555555555-8888888888888888-------------------------|

(possibly) Verse 1
0:41  “How come you try…”
|--------------------------------------------------|
|--------------------------------------------------|
|--------------------------------------------------|   x2
|-8-8-8----5-5-5-----0-0-0-------------------------|

(just maybe) Bridge 1
1:02   “At this rate, We can’t keep up…”
|-------------------------------------------------------------|
|-------------------------------------------------------------|
|-------------------------------------------------------------|  x2
|-0---0-----00----0000---888888888888888888888888-55555555----|
(weird timing here)

Verse 2 (?)
1:23  We walk alone
|---------|
|---------|
|---------|   x7
|-0-0-0---|

Bridge 2
1:57   “Your almost home and I’m ok…”
|-------------------------------------------------------------------|
|-------------------------------------------------------------------|
|---------------------3h5-----------------------------------3h5/1---|
|-8-8-8~----5-5-5~---0---0~-----8-8-8~---5-5-5~---0-0-0--—0---------|

Bridge 2 (cont.)
|----------------------------|
|----------------------------|
|----------------------------|  x3
|-8-8-8~-----5-5-5~-----0~---|

End of Bridge 2
3:00
|-------|
|-------|
|-------|
|-0~~---|


No bass in breakdown
“I hope to God you come down…”


3:36  “I know there must be some way out of here…”
|--------------------------------------------------------------|
|--------------------------------------------------------------|
|--------------------------------------------------------------|
|-000----0000-----000-----0000----000---0000---000---002/0~~---|

Comment away!
            
Submit corrections



        Writing On The Walls lessons Hard to play? Try these video lessons and learn fast Writing On The Walls lessons
        
↑ Back to top | Tablatures and chords for acoustic guitar and electric guitar, ukulele, drums are parodies/interpretations of the original songs. You may use it for private study, scholarship, research or language learning purposes only