» » »

Underoath - When The Sun Sleeps Bass

Artists:  A B C D E F G H I J K L M N O P Q R S T U V W X Y Z # 

When The Sun Sleeps Bass

(ver. 1) Click to play this song!
Underoath
 Rating:
4/5 (4 votes)


 When The Sun Sleeps lessons Tabs too difficult? Try these video lessons and learn fast
 
                Drop D Tuning (not exact rhythm)


Intro 0:19 - 0:25

G---------------------------------------|
D---------------------------------------|
A--------------------3~--333------------|
D--------------2~-0~--------------------|

Pre-verse x 2 0:26 - 0:51

G-------------------------------------------------------|
D-------------------------------------------------------|
A-----------------------------3333-3333-3333-3333-------|
D-2222---0000---2222---0000-----------------------------|

Verse x 2 0:52 1:15

G-------------------------------------------------------|
D-------------------------------------------------------|
A-7777-9999-7777-5555-3333-3333-3333-3333-3333----------|
D-------------------------------------------------------|

Pre-Chorus  1:16 - 1:18

G-2--5-------|
D-------2--0-|
A------------|
D------------|

Chorus x 2 1:19 - 1:43

G---------------------------------------------------------------------------------------|
D---------------------------------------------------------------------------------------|
A-0000000000000000-33333333333333333----------------------------------------------------|
D------------------------------------2222222222222222-0000000000000000------------------|

Pre-verse   1:53 - 2:09
G-----------------------------------------------2-5--------------------------|
D---------------------------------------------------2-0----------------------|
A----------------------------------------3~-3~-------------------------------|
D-2~-0~-2~-2~-0~-0~--2222-4444-2222-0000-------------------------------------|

Verse x 2 2:10 - 2:35
G-------------------------------------------------------------------|
D-------------------------------------------------------------------|
A-7777--9999--7777--5555--3333--3333--3333--3333--------------------|
D-------------------------------------------------------------------|

Chorus 2:36 - 3:01 x 2

G---------------------------------------------------------------------------------------|
D---------------------------------------------------------------------------------------|
A-0000000000000000-33333333333333333----------------------------------------------------|
D------------------------------------2222222222222222-0000000000000000------------------|

Bridge 3:02 - 3:52 x 4
G--------------------------------|
D--------------------------------|
A-0000-3333--77777777--55555555--|
D--------------------------------|

Chorus 3:53 - 4:44 x 4

G---------------------------------------------------------------------------------------|
D---------------------------------------------------------------------------------------|
A-0000000000000000-33333333333333333----------------------------------------------------|
D------------------------------------2222222222222222-0000000000000000------------------|

Breakdown  4:45 - 5:11 x 2
G----------------------------------------------------|
D----------------------------------------------------|
A----------------------------------------------------|
D-7777-7777-1010101010101010-2222-2222-0000-0000-----|

End 5:15 - 5:33

G------------------|
D-------2~-0~------|
A-0~-3~--------3~--|
D------------------|
            
Submit corrections



        When The Sun Sleeps lessons Hard to play? Try these video lessons and learn fast When The Sun Sleeps lessons
        
↑ Back to top | Tablatures and chords for acoustic guitar and electric guitar, ukulele, drums are parodies/interpretations of the original songs. You may use it for private study, scholarship, research or language learning purposes only