» » »

Underoath - The Created Void Bass

Artists:  A B C D E F G H I J K L M N O P Q R S T U V W X Y Z # 

The Created Void Bass

(ver. 1) Click to play this song!
Underoath
 Rating:
4/5 (4 votes)


 The Created Void lessons Tabs too difficult? Try these video lessons and learn fast
 
                ------------------------------------------------------------------------------
			  The Created Void - Underoath
-------------------------------------------------------------------------------


 Tuning:Drop D
 
 Intro (0.38)
G|-------------|
D|-------------|
A|-------------|
D|3-3----------|
 x3
G|------------------------------------|
D|------------------------------------|
A|------------------------------------|
D|0h7-77-0h7-77-0h7-7-0h7-77----------|

 Verse x4
G|-------------------------------|
D|-------------------------------|
A|-------------------------------|
D|0h7-7-0h7-77-0h7-7-3-3---------|

 Pause
 
 Verse x4

 Chorus x2
G|--------------|-----------------------|
D|--------------|-----------------------|
A|--------------|-----------------------|
D|3~----2~--7~--|-3~----2~----5~--------|

 Post Chorus x4
G|----------------------------------|
D|----------------------------------|
A|---3/5~---------------------------|
D|7~---------5~-----3-3-3-----------|
 
 Outro x4
G|-----------------------------------------------------|
D|-----------------------------------------------------|
A|0-00-0-3h5-55-5p3-0-00-0-3h5-55-5p3------------------|
D|-------------------------------------55555555-3333---|
            
Submit corrections



        The Created Void lessons Hard to play? Try these video lessons and learn fast The Created Void lessons
        
↑ Back to top | Tablatures and chords for acoustic guitar and electric guitar, ukulele, drums are parodies/interpretations of the original songs. You may use it for private study, scholarship, research or language learning purposes only