» » »

Underoath - Changing Of Times Tabs

Artists:  A B C D E F G H I J K L M N O P Q R S T U V W X Y Z # 

Changing Of Times Tabs

(ver. 1) Click to play this song!
Underoath
 Rating:
4/5 (4 votes)


 Changing Of Times lessons Tabs too difficult? Try these video lessons and learn fast
 
                just figured this out the other day.

i'm just tabbing out one guitar, because the parts where there are two guitars are very simple.

anyways here you go.


Tuning: DROPPED D

Intro (clean):
(0:12)
e|---------------------------------------------------------------------------|
B|----------0----------------------------------------------------------------|
G|-5---5-----5--------------(8x)---------------------------------------------|
D|--7---7--7--7--------------------------------------------------------------|
A|0---0---0------------------------------------------------------------------|
D|---------------------------------------------------------------------------|

Distortion kicks in:
(0:36)
e|---------------------------------------------------------------------------|
B|---------------------------------------------------------------------------|
G|---------------------------------55555555----------------------------------|
D|1010101010-1010101010-10101010--355555555-----------(4x)-------------------|
A|-7-7-7-7-7--7-7-7-7-7--7-7-7-7--333333333----------------------------------|
D|-7-7-7-7-7--7-7-7-7-7--7-7-7-7--333333333----------------------------------|

then...
(1:00)
e|-----------------------00--00--0-----------0--0--0-------------------------|
B|--0-0-0-0--------------00--00--0------------0--0---------------------------|
G|-7-7-7-7-7--55555555-77--77--77---55555555---7--7--------------------------|
D|-----------355555555-------------355555555---------------------------------|
A|-----------333333333-------------333333333---------------------------------|
D|-----------333333333-------------333333333---------------------------------|

then...
(1:15)
e|---------------------------------------------------------------------------|
B|---------------------------------------------------------------------------|
G|---------------------------------------------------------------------------|
D|0-0-000-0-0-000-0-0-000-0-0-000-0-0-000-0-0-000-0-0-000-0-0-000------------|
A|0-0-000-0-0-000-0-0-000-0-0-000-0-0-000-0-0-000-0-0-000-0-0-000------------|
D|0-0-000-0-0-000-0-0-000-0-0-000-0-0-000-0-0-000-0-0-000-0-0-000------------|
PM. . ... . . ... . . ... . . ... . . ... . . ... . . ... . . ...

then...
(1:27)
e|-----------------------------------------------------------------------------|
B|-----------------------------------------------------------------------------|
G|-----------------------------------------------------------------------------|
D|3203203203203200-32-32-32-32-32-----------------|-0-|------------------------|
A|-------------------4--4--4--4--44---(2x)--------|-0-|-<<<-End with that------|
D|------------------------------------------------|-0-|------------------------|
PM................ ................

PAUSE
(1:40)
then...this (lead guitar)
(1:43)
e|---------------------------------------------------------------------------|
B|---------------------------------------------------------------------------|
G|9-9-9-9-91010101010-9-9-9-9-91010101010------------------------------------|
D|x-x-x-x-x-x-x-x-x-x-x-x-x-x-x-x-x-x-x-x------------------------------------|
A|7-7-7-7-7-8-8-8-8-8-7-7-7-7-7-8-8-8-8-8------------------------------------|
D|---------------------------------------------------------------------------|

e|---------------------------------------------------------------------------|
B|---------------------------------------------------------------------------|
G|1010101010-12-12-12-12-12-14-14-14-14-14-12-12-12-12-12--------------------|
D|-x-x-x-x-x--x--x--x--x--x--x--x--x--x--x--x--x--x--x--x--------------------|
A|-8-8-8-8-8-10-10-10-10-10-12-12-12-12-12-10-10-10-10-10--------------------|
D|---------------------------------------------------------------------------|

e|---------------------------------------------------------------------------|
B|---------------------------------------------------------------------------|
G|9-9-9-9-91010101010-9-9-9-9-91010101010------------------------------------|
D|x-x-x-x-x-x-x-x-x-x-x-x-x-x-x-x-x-x-x-x------------------------------------|
A|7-7-7-7-7-8-8-8-8-8-7-7-7-7-7-8-8-8-8-8------------------------------------|
D|---------------------------------------------------------------------------|

e|---------------------------------------------------------------------------|
B|---------------------------------------------------------------------------|
G|1010101010-12-12-12-12-12-14-14-14-14-14-12-12-12-12-12--------------------|
D|-x-x-x-x-x--x--x--x--x--x--x--x--x--x--x--x--x--x--x--x--------------------|
A|-8-8-8-8-8-10-10-10-10-10-12-12-12-12-12-10-10-10-10-10--------------------|
D|---------------------------------------------------------------------------|

e|---------------------------------------------------------------------------|
B|---------------------------------------------------------------------------|
G|9-9-9-9-91010101010-9-9-9-9-91010101010------------------------------------|
D|x-x-x-x-x-x-x-x-x-x-x-x-x-x-x-x-x-x-x-x------------------------------------|
A|7-7-7-7-7-8-8-8-8-8-7-7-7-7-7-8-8-8-8-8------------------------------------|
D|---------------------------------------------------------------------------|

e|---------------------------------------------------------------------------|
B|---------------------------------------------------------------------------|
G|1010101010-12-12-12-12-12-14-14-14-14-14-12-12-12-12-12--------------------|
D|-x-x-x-x-x--x--x--x--x--x--x--x--x--x--x--x--x--x--x--x--------------------|
A|-8-8-8-8-8-10-10-10-10-10-12-12-12-12-12-10-10-10-10-10--------------------|
D|---------------------------------------------------------------------------|

e|---------------------------------------------------------------------------|
B|---------------------------------------------------------------------------|
G|9-9-9-9-91010101010-9-9-9-9-91010101010------------------------------------|
D|x-x-x-x-x-x-x-x-x-x-x-x-x-x-x-x-x-x-x-x------------------------------------|
A|7-7-7-7-7-8-8-8-8-8-7-7-7-7-7-8-8-8-8-8------------------------------------|
D|---------------------------------------------------------------------------|

e|---------------------------------------------------------------------------|
B|---------------------------------------------------------------------------|
G|1010101010-12-12-12-12-12-14-14-14-14-14-----------------------------------|
D|-x-x-x-x-x--x--x--x--x--x--x--x--x--x--x-----------------------------------|
A|-8-8-8-8-8-10-10-10-10-10-12-12-12-12-12-----------------------------------|
D|---------------------------------------------------------------------------|

then...
(2:26)
e|---------------------------------------------------------------------------|
B|---------------------------------------------------------------------------|
G|17-17-17-17-17-17-17-17-17-17-17-17-17-17-17-17----------------------------|
D|-x--x--x--x--x--x--x--x--x--x--x--x--x--x--x--x----(4x)--------------------|
A|15-15-15-15-15-15-15-15-15-15-15-15-15-15-15-15----------------------------|
D|---------------------------------------------------------------------------|

then...
(2:37)
e|---------------------------------------------------------------------------|
B|---------------------------------------------------------------------------|
G|17/151515/1717171717/151515/17171717---------------------------------------|
D|-x--x-x-x--x-x-x-x-x--x-x-x--x-x-x-x-----(4x)------------------------------|
A|15/131313/1515151515/131313/15151515---------------------------------------|
D|---------------------------------------------------------------------------|

then...
(2:48)
e|---------------------------------------------------------------------------|
B|---------------------------------------------------------------------------|
G|-------------33---3--------------------------------------------------------|
D|00-000-000-0-22--2---------------(12x)-------------------------------------|
A|00-000-000-0---04----------------------------------------------------------|
D|00-000-000-0---------------------------------------------------------------|
PM.. ... ... .

just bass
(3:20)
then this (clean)
(3:26)
e|-00-00--0---00-00--0-------------------------------------------------------|
B|-00-00--0---00-00--0-------------------------------------------------------|
G|4--4--44-4h5--5--55--------------------------------------------------------|
D|---------------------------------------------------------------------------|
A|---------------------------------------------------------------------------|
D|---------------------------------------------------------------------------|

then...distortion
(3:31)
e|---------------------------------------------------------------------------|
B|---------------------------------------------------------------------------|
G|10-9-1010/1212-------------------------------------------------------------|
D|-x-x--x-x--x-x-------(4x)--------------------------------------------------|
A|-8-7--8-8/1010-------------------------------------------------------------|
D|---------------------------------------------------------------------------|

then...
(3:42)
e|---------------------------------------------------------------------------|
B|---------------------------------------------------------------------------|
G|1010101010101010-9-9-9-9-9-9-9-9-------------------------------------------|
D|-x-x-x-x-x-x-x-x-x-x-x-x-x-x-x-x----(3x)-----------------------------------|
A|-8-8-8-8-8-8-8-8-7-7-7-7-7-7-7-7-------------------------------------------|
D|---------------------------------------------------------------------------|

and finally
(3:50)
e|---------------------------------------------------------------------------|
B|---------------------------------------------------------------------------|
G|---------------------------------------------------------------------------|
D|10-9-1010/1212-9~----------------------------------------------------------|
A|-x-x--x-x--x-x-x-----------------------------------------------------------|
D|-8-7--8-8/1010-7~----------------------------------------------------------|

and thats it
pretty simple


| /  slide up
|   slide down
| h  hammer-on
| p  pull-off
| ~  vibrato
| +  harmonic
| x  Mute note
            
Submit corrections



        Changing Of Times lessons Hard to play? Try these video lessons and learn fast Changing Of Times lessons
        
↑ Back to top | Tablatures and chords for acoustic guitar and electric guitar, ukulele, drums are parodies/interpretations of the original songs. You may use it for private study, scholarship, research or language learning purposes only