» » »

Underoath - Reinventing Your Exit Bass

Artists:  A B C D E F G H I J K L M N O P Q R S T U V W X Y Z # 

Reinventing Your Exit Bass

(ver. 1) Click to play this song!
Underoath
 Rating:
4/5 (4 votes)


 Reinventing Your Exit lessons Tabs too difficult? Try these video lessons and learn fast
 
                -------------------------------------------------------------------------------
			     Reinventing your exit - Underoath
-------------------------------------------------------------------------------


Tuning: GDAD
    intro: fallows the percussion, listen you'll get it
G|---------------------------------------------------------------------------|
D|---------------------------------------------------------------------------|
A|-----0---3-----------------------------------------------------------------|
D|-------------3---5---------------------------------------------------------|
       Pre-verse Listen for timing
     Invincible. . .
G|-------------------------------------------------------------------------|
D|-------------------------------------------------------------------------|
A|---00000------3333------|------------------------------------------------|
D|---------------------------3333-------5555-------------------------------|
           Verse
G|--------------------------------------------------------------------------|
D|--------------------------------------------------------------------------|
A|-----0~-------------------------0~----------------------------------------|
D|-----------3~---------5~--------------------------------------------------|
  Pre-pre chorus
   Its round and round. . . .
G|---------------------------------------------------------------------------|
D|---------------------------------------------------------------------------|
A|---0000--------------------------------------------------------------------|
D|--------------3333----5555-------2222--------------------------------------|
      Pre chorus
G|--------------------------------------------------------------------------|
D|--------------------------------------------------------------------------|
A|-------------------0000---------------------------------------------------|
D|----33333---------------------3333----5555--------------------------------|
   Chorus
G|-----------------------------------------------------------------------|
D|-----------------------------------------------------------------------|
A|-----00000------33333--------------------------------------------------|
D|----------------------------------33333----55555-----------------------|
       Breakdown
G|-----------------------------------------------------------------------------|
D|-----------------------------------------------------------------------------|
A|------00------------------------------------------------00-------------------|
D|-------------33----55--------00-----33------55-------------33----------------|
         Interlude
G|--------------------------------------------------------------------------------|
D|--------------------------------------------------------------------------------|
A|--00----------------------------------------------------------------------------|
D|----------33--------55-----00------33-------------------------------------------|
         Comes in when the drummer starts singing
G|-----------------------------------------------------------------------------|
D|-----------------------------------------------------------------------------|
A|------000--------------------------------------------------------------------|
D|--------------333------555---------------------------------------------------|
Rrepeat this untill you re-enter chorus. Then play chorus

         End with this
G|-------------------------------------------------------------------------------|
D|-------------------------------------------------------------------------------|
A|-0~----------------------------------------------------------------------------|
D|-------------------------------------------------------------------------------|

| /  slide up
| \  slide down
| h  hammer-on
| p  pull-off
| ~  vibrato
| +  harmonic
| x  Mute note

Ok this is my first tab ive ever done so e-mail me with all your  corrections/hateful words/ect
===============================================================================
            
Submit corrections



        Reinventing Your Exit lessons Hard to play? Try these video lessons and learn fast Reinventing Your Exit lessons
        
↑ Back to top | Tablatures and chords for acoustic guitar and electric guitar, ukulele, drums are parodies/interpretations of the original songs. You may use it for private study, scholarship, research or language learning purposes only