» » »

Udo Lindenberg - Cello Tabs

Artists:  A B C D E F G H I J K L M N O P Q R S T U V W X Y Z # 

Cello Tabs

(ver. 1) Click to play this song!
Udo Lindenberg
 Rating:
4/5 (5 votes)


 Cello lessons Tabs too difficult? Try these video lessons and learn fast
 
                Die Tabs sind für die Stelle, an der das "Cello" ein kurzes Solo spielt.
Es lässt sich einfach auf der Akustik-Gitarre spielen.
These Tabs are for the part where the "cello" plays a short solo.
It's easy to play on the acoustic guitar.
Die Tonhöhe ist mit dem original-Song kompatibel, leider nicht mit den hier zu
findenden Chords für den Song.
The pitch is compatible with the original song. Unfortunately it's incompatible to

-----------------------------------------------------------------------------
                             Cello - Udo Lindenberg
-----------------------------------------------------------------------------

Tuning:    standard (EADGBE)

e|--------------------------------------------------------------------------|
B|-------------------3--3--1------------------------------------------------|
G|-7--5--3--2--3--5-----------3--5--7---------------------------------------|
D|--------------------------------------------------------------------------|
A|--------------------------------------------------------------------------|
E|--------------------------------------------------------------------------|

e|--------------------------------------------------------------------------|
B|-----------------------------------3--------------------------------------|
G|-----8--8--7--5--3-----3--3--5--3-----5--3--------------------------------|
D|--------------------3-----------------------5-----------------------------|
A|-10-----------------------------------------------------------------------|
E|--------------------------------------------------------------------------|

Hier nun auch die Variante, die zur Tonhöhe der "Chords" des Songs passt, die es hier
auf 
ultimat-guitar.com gibt.
This is the version, which is totally compatible to the cords you can also find at 

e|--------------------------------------------------------------------------|
B|--------------------------------------------------------------------------|
G|--------------------------------------------------------------------------|
D|-7--5--3--2--3--5--7--7--5--3--5--7---------------------------------------|
A|--------------------------------------------------------------------------|
E|--------------------------------------------------------------------------|

e|--------------------------------------------------------------------------|
B|--------------------------------------------------------------------------|
G|----------------------------------2---------------------------------------|
D|----8--8--7--5--3-----3--3--5--3-----5--3---------------------------------|
A|-5-----------------3-----------------------5------------------------------|
E|--------------------------------------------------------------------------|

Wenn ihr Hilfe braucht oder Kritik üben wollt, schreibt mir eine Mail.
If you need some help or want to offer criticism, send me a mail.
            
Submit corrections



        Cello lessons Hard to play? Try these video lessons and learn fast Cello lessons
        
↑ Back to top | Tablatures and chords for acoustic guitar and electric guitar, ukulele, drums are parodies/interpretations of the original songs. You may use it for private study, scholarship, research or language learning purposes only