» » »

Ub40 - Earth Dies Screaming Bass

Artists:  A B C D E F G H I J K L M N O P Q R S T U V W X Y Z # 

Earth Dies Screaming Bass

(ver. 1) Click to play this song!
Ub40
 Rating:
4.2/5 (5 votes)


 Earth Dies Screaming lessons Tabs too difficult? Try these video lessons and learn fast
 
                    Title - The Earth Dies Screaming
    Artist - UB40
    Album - The UB40 File/Best of Volume 1


  G|------------------------------------|
  D|--10-10--10------10-10--10--12--10--|
  A|------------------------------------|
  E|------------8-8---------------------|

  G|---------------------------|
  D|--6-6--6-----6-6--6--8--6--|
  A|---------------------------|
  E|---------4-4---------------|

  G|--------------------------------|
  D|--\5--5-5------5-5-/7-7------7--|
  A|--------------------------------|
  E|-----------3-3-----------5-5----|

  G|----------------------|
  D|----------------------|
  A|--7-8-7--7h8p7--8-10--|
  E|----------------------|

   repeat thru out with slight variations
   
    h=hammer on to note
    p=pull off to note
    /=slide up to note
    \=slide down to note
            
Submit corrections



        Earth Dies Screaming lessons Hard to play? Try these video lessons and learn fast Earth Dies Screaming lessons
        
↑ Back to top | Tablatures and chords for acoustic guitar and electric guitar, ukulele, drums are parodies/interpretations of the original songs. You may use it for private study, scholarship, research or language learning purposes only