» » »

Type O Negative - Cinnamon Girl Tabs

Artists:  A B C D E F G H I J K L M N O P Q R S T U V W X Y Z # 

Cinnamon Girl Tabs

(ver. 1) Click to play this song!
Type O Negative
 Rating:
4/5 (4 votes)

 Cinnamon Girl lessons Tabs too difficult? Try these video lessons and learn fast
 
                Type O Negative: Cinnamon Girl


Type-O tuning from low to high (B,E,A,D,F#,B)

Intro-riff
{ Crank that chorus up for the mutes!.
  Top notes is keyb.(organ) on album 1 octave higher }
|-7h9--9--9--7h9--9--9--7h9--9-|-5h7--7--7--5h7--7--7--5h7--7--|
|-7----------7----------7------|-5----------5-------4--5----7--|
|------------------------------|-------------------------------|
|-x--x--x-x-x-x--x--x--x-x-x-x-|-x--x--x-x-x-x--x--x--x-x-x-x--|
|-x--x--x-x-x-x--x--x--x-x-x-x-|-x--x--x-x-x-x--x--x--x-x-x-x--|
|-x--x--x-x-x-x--x--x--x-x-x-x-|-x--x--x-x-x-x--x--x--x-x-x-x--|


Main-riff
|                |            1.3.|               2.|          4.|
|----------------|----------------|-----------------|------------|
|----------------|----------------|-----------------|------------|
|-4-h6--6p4-6--6-|----------------|-----------------|------------|
|-4-h6--6p4-6--6-|-4--------------|-4---------------|-4-3--------|
|-4-----4---4--4-|-2-1h2p1--------|-2-1h2p1---------|-2-1-6-2----|
|----------------|---------4-0-2~-|---------4-0--h2-|-----4-0-/\-|


Verse-riff
|---------------------------------------------------------------|
|-------12--------12----12-------------12--------------12-------|
|-10-------11-----13-13----11-----8-------11-----11-------11----|
|-11-11-------11--13----------11--9-11-------11--11-11----------|
|-11--------------11--------------9---------------9-------------|
|--9-------------(11)------------(7)--------------9--------/14\-| "I
want to live..."


Fill-riff (pre-main)
|--------------------------------------|
|--------------------------------------|
|--------------------------------------|
|--------------------------------------|
|----------2--4--4-x-x-2-1h2p1---------|
|-0--2--4----------------------2--4\-/\|


Bridge-riff
|                |
|----------------|-------------------------------<12>--|
|----------------|-------------------------------------|
|----------------|-11----11---11---11---11-------------|
|-9---9-9-6---6--|-11-------9----9----9----------------|
|-9---9-9-6---6--|--9--9--------------------<9>--------|
|-7---7-7-4---4--|--9-----------------------<9>--------|
"Ma send me money..."



Solo 1
|/13-11--9--9/11-11------7--11-----9--7-/13-----14\-9-------------|
|-----------------------------------------------------------------|
|/10--8--6--6/8--8p6h8p6----/8---8-6--4-/10--10-11\-6--(6)--------|
|------------------------9----------------------------------------|
|-/8--6--4--4/6-(6)---------/6-6---4--2--/8-8----9\-4--\2-/4------|
|-------------------------------------------------------------<4>-|


Solo 2
|-----------------------------------------------------------------|
|-9------7-6-7-6-------9------7-6---------------------------------|
|----------------6~---------------4b (slow)----- release ---------|
|-----------------------------------------------------------------|
|-----------------------------------------------------------------|
|-----------------------------------------------------------------|


Finish-riff
|----------------------------------------|
|----------------------------------------|
|----------------------------------------|
|-x\\-scratch------------------11\-------|
|-x\\----------9-11-11--9-11---11\---<9>-|
|--------------7--9--9--7--9----9\---<9>-|
                                     outro
                                    feedback

I want to live with a Cinnamon Girl
I could be happy the rest of my life with her
A dreamer of pictures I run in the night
You see us together chase the moonlight

Ten silver saxes a bass with a bow
The drummer relaxes, waits between shows
A dreamer of pictures I run in the night
You see us together chase the moonlight

Ma send me money now I'm gonna make it somehow
I need another chance
You see my baby loves to dance yeah, yeah, yeah
            
Submit corrections


        Cinnamon Girl lessons Hard to play? Try these video lessons and learn fast Cinnamon Girl lessons
        
↑ Back to top | Tablatures and chords for acoustic guitar and electric guitar, ukulele, drums are parodies/interpretations of the original songs. You may use it for private study, scholarship, research or language learning purposes only