» » »

Twenty One Pilots - Isle Of Flightless Birds Tabs

Artists:  A B C D E F G H I J K L M N O P Q R S T U V W X Y Z # 

Isle Of Flightless Birds Tabs

(ver. 1) Click to play this song!
Twenty One Pilots
 Rating:
4.3/5 (15 votes)
    Isle Of Flightless Birds  lessons Tabs too difficult? Try these video lessons and learn fast
                [Intro]

e|--3----7-5-3-2----2----2-3-5-3-2h3--|--3----5--3--2---0-----0------2--------|
B|--0---------------3-----------------|--0----------3------3--1---1--4--------|
G|--0---------------2-----------------|--0----------2---------2------4--------|
D|--2---------------0-----------------|--0----------0---------2------4--------|
A|--2---------------x-----------------|--2----------x---------0------2--------|
E|--0---------------x-----------------|--3----------x---------0------2--------|

e|--3----7-5-3-2----2----2-3-5-7-5-3--|--3----5--3--2---0-----0------2--------|
B|--0---------------3-----------------|--0----------3------3--1---1--4--------|
G|--0---------------2-----------------|--0----------2---------2------4--------|
D|--2---------------0-----------------|--0----------0---------2------4--------|
A|--2---------------x-----------------|--2----------x---------0------2--------|
E|--0---------------x-----------------|--3----------x---------0------2--------|

e|-3-2-3-2-3-5-7-5-7-|-8-10--11---14----12--|
B|-------------------|----------------------|
G|-------------------|----------------------|
D|-------------------|----------------------|
A|-------------------|----------------------|
E|-------------------|----------------------|            
Submit corrections

↑ Back to top | Tablatures and chords for acoustic guitar and electric guitar, ukulele, drums are parodies/interpretations of the original songs. You may use it for private study, scholarship, research or language learning purposes only