Home » T » Troggs »

Troggs - Wild Thing Tabs

Artists:  A B C D E F G H I J K L M N O P Q R S T U V W X Y Z # 

Wild Thing Tabs

(ver. 2) Click to play this song!
Troggs
Intro/verse

1--------------------------------------------------
2--------------------------------------------------
3---------------------------7-7-x-x-9-9-9-9-----9-9
4---------------7-7-x-x-x-x-7-7-x-x-9-9-9-9-----9-9
5---------------7-7-x-x-x-x-5-5-x-x-7-7-7-7-----7-7
6-Pick Scr*pe---5-5-x-x-x-x------------------------

or

||  A A || D D || E E E E || D D ||


"WILD THING I THINK I LOVE YOU"

1-----------------------
2-----------------------
3-----------------------
4--------5--H-7----5-H-7           
5--------5--H-7----5-H-7
6--------5--H------5-H--

OR

1
2
3----0--2--0--2
4----0--2--0--2
5
6

"BUT I WANNA NO 4 SURE" ETC.

GO BK 2 VERSE

ITS SIMPLE BUT IT MADE THEM MILLIONS!
            
Submit corrections

↑ Back to top | Tablatures and chords for acoustic guitar and electric guitar, ukulele, drums are parodies/interpretations of the original songs. You may use it for private study, scholarship, research or language learning purposes only