Home » T » Troggs »

Troggs - Wild Thing Tabs

Artists:  A B C D E F G H I J K L M N O P Q R S T U V W X Y Z # 

Wild Thing Tabs

(ver. 1) Click to play this song!
Troggs
I’m pretty sure this is how it goes


O-open strings 

Cords-A  D  E    that’s it) 

E---------------2---2------------------------------------------------------
B--3--3--------3---3--------1---1---1--1-----1--1---1----------------------         G--3--3--------2---2--------2---2---2--2-----2--2---2----------------------          
D--3--3----------------------2---2---2--2-----2--2---2---------------------
A--------------------------------------------------------------------------
E -------------------------------------------------------------------------
.
E---------------2--2--2---------------------2--2--2------------------------
B-3-3----------3--3--3--------1-1---------3--3--3--------------------------
G-3-3----------2--2--2--------2-2---------2--2--2--------------------------        
D-3-3--------------------------2-2-----------------------------------------
A--------------------------------------------------------------------------
E--------------------------------------------------------------------------
Wild thing, you make my hart sing, you make every thing groovy, 
Wild thing  


E---------------2---2------------------------------------------------------
B--3--3--------3---3--------1---1---1--1-----------------------------------
G--3--3--------2---2--------2---2---2--2-----------------------------------    
D--3--3----------------------2---2---2--2----------------------------------
A--------------------------------------------------------------------------
E -------------------------------------------------------------------------



E--------------------------------------------------------------------------
B-O----3-----O------3------------------------------------------------------
G-O----3-----O------3------------------------------------------------------        
D-O----3-----O------3------------------------------------------------------
A--------------------------------------------------------------------------
E--------------------------------------------------------------------------
Wild thing; I think I love you, But I want to now for sure, so come on 
and hold me tight,…….I love you  





E---------------2--2--2---------------------2--2---------------------------
B-3-3----------3--3--3--------1-1---------3--3-----------------------------
G-3-3----------2--2--2--------2-2---------2--2-----------------------------        
D-3-3--------------------------2-2-----------------------------------------
A--------------------------------------------------------------------------
E--------------------------------------------------------------------------
Wild thing, you make my hart sing, you make every thing groovy, 
Wild thing  




And that’s about the same thing over again
            
Submit corrections

↑ Back to top | Tablatures and chords for acoustic guitar and electric guitar, ukulele, drums are parodies/interpretations of the original songs. You may use it for private study, scholarship, research or language learning purposes only