Home » T » Troggs »

Troggs - Wild Thing Bass

Artists:  A B C D E F G H I J K L M N O P Q R S T U V W X Y Z # 

Wild Thing Bass

(ver. 1) Click to play this song!
Troggs
-------------------------------------------------------------------------------
			 WILD THING - THE TROGGS
-------------------------------------------------------------------------------


Tuning: Standard

INTRO
G |-------------------------|
D |-------------------------|
A |-------5-5----7-7--5-5---|
E |--5-5------7-------------|

LAST TIME
G |-------------------------|
D |-------------------------|
A |-------5-5----7-7-7-7-7--|
E |--5-5------7-------------|

VERSE
G |-----------------------------------------------|
D |-----------------------------------------------|
A |-----------------------------------------------|
E |-3-5-3-5-----3-5-3-5----3-5-3-5----3-5-3-5-----|

CHORUS
G |-------------------------|
D |-------------------------|
A |-------5-5----7-7--5-5---|
E |--5-5------7-------------|

LAST TIME
G |-------------------------|
D |-------------------------|
A |-------5-5----7-7-7-7-7--|
E |--5-5------7-------------|

THATS ALL !
            
Submit corrections

↑ Back to top | Tablatures and chords for acoustic guitar and electric guitar, ukulele, drums are parodies/interpretations of the original songs. You may use it for private study, scholarship, research or language learning purposes only