» » »

T Rex - The Woodland Rock Bass

Artists:  A B C D E F G H I J K L M N O P Q R S T U V W X Y Z # 

The Woodland Rock Bass

(ver. 1) Click to play this song!
T Rex
 Rating:
4/5 (4 votes)


 The Woodland Rock lessons Tabs too difficult? Try these video lessons and learn fast
 
                
 Woodland Rock by T Rex 


 INTRO

 E-|-3h5-5-5-3h5-5-5-| X 3.5

 VERSE
     1         1          1   3     1 2 3 4
 E-|-5-------|-5--------|-5---5---|-5-5-5-5-|---------|

 CHORUS

     1 2 3 4&  1 2 3 4&
 G-|-------4-|-------4--|
 D-|---4-7--7|---4-7--7-|
 A-|-5-------|-5--------|
 E-|---------|----------|

     1 2 3 4&   1 2 3 4&  1 2 3 4&  1 2 3 4&  1 2 3 4&
 G-|---------|----------|-------6-|-------4-|---------|
 D-|-------4-|--------4-|---6-9--9|---4-7--7|-------4-|
 A-|---4-7--7|----4-7--7|-7-------|-5-------|---4-7--7|
 E-|-5-------|--5-------|---------|---------|-5-------|

    1&2&3&4&
 G-|---------|
 D-|---------|
 A-|---------|
 E-|00000000-|

 Do that verse/chorus thing 3 times, then it goes right into this little 
 break thing which is fun.

 BREAK THING

 E-|-3h5-5-5-3h5-5-5-| X 3.5  Then play the chorus again.

 Then play verse and chorus twice more.

 Then rest for the short verse with no bass part, then chorus again.

 Then go right back into a chorus, but this time play the last two note in 
 each measure on &4 instead of 4&.
 OR you can play each part with this rythm:

     1&2&3&4&  
 G-|-------4-| 
 D-|-----47-7|
 A-|-5--7----|
 E-|---------|

 When you get to the third part of the chorus, then play


 G-|---------|----------|---------|
 D-|----6-9--|----4-7---|---------|
 A-|-7-------|-5--------|----4-7--|
 E-|---------|----------|-5-------|  followed by a bar of open E as usual.

 Play this revised chorus thing twice.  Then the song ends.
            
Submit corrections



        The Woodland Rock lessons Hard to play? Try these video lessons and learn fast The Woodland Rock lessons
        
↑ Back to top | Tablatures and chords for acoustic guitar and electric guitar, ukulele, drums are parodies/interpretations of the original songs. You may use it for private study, scholarship, research or language learning purposes only