» » »

Trapt - Waiting Bass

Artists:  A B C D E F G H I J K L M N O P Q R S T U V W X Y Z # 

Waiting Bass

(ver. 1) Click to play this song!
Trapt
 Rating:
4/5 (4 votes)


 Waiting lessons Tabs too difficult? Try these video lessons and learn fast
 
                Band: Trapt

Tuning: Drop C  (C G C F)


Intro
|---------------------------------------|
|---------------------------------------|    
|-22-2-2-22-2222--66-6-6--44-4444-------|  x 2
|---------------------------------------|         

Verse                  
|-------------------------------------------------------------|       
|-------------------------------------------------------------|      
|-2222222222222222/4444444444444444/666666666666666666666666--| x 2
|-------------------------------------------------------------| 

Pre-Chorus  (on second time play the 4's continuous)
|----------------------------------|
|----------------------------------|    
|-22-2-2-22-2222--66-6-6--44-4444--| x 2
|----------------------------------|

Chorus
|-----------------------------------------------------------------------|
|-----------------------------------------------------------------------|    
|-2-222-22-22-222--4-444-44-44-444--------------------------------------| x 2
|-----------------------------------6-666-66-66-666--1-111-1--3-333-33--|

Verse
|-------------------------------------------------------------|       
|-------------------------------------------------------------|      
|-2222222222222222/4444444444444444/666666666666666666666666--| x 3
|-------------------------------------------------------------| 

Pre-Chorus  (on second time play the 4's continuous)
|----------------------------------|
|----------------------------------|    
|-22-2-2-22-2222--66-6-6--44-4444--| x 2
|----------------------------------|

Chorus
|-----------------------------------------------------------------------|
|-----------------------------------------------------------------------|    
|-2-222-22-22-222--4-444-44-44-444--------------------------------------| x 2
|-----------------------------------6-666-66-66-666--1-111-1--3-333-33--|

Break
|----------------------------------------------|
|------------------4---------------------------|    
|-2~--4~--6---------2~--4~--6------------------| 
|----------6~--8~------------6~--8~-6/11-------|

Pre-Chorus  (on second time play the 4's continuous)
|----------------------------------|
|----------------------------------|    
|-22-2-2-22-2222--66-6-6--44-4444--| x 2
|----------------------------------|

Chorus
|-----------------------------------------------------------------------
|-----------------------------------------------------------------------    
|-2-222-22-22-222--4-444-44-44-444-------------------------------------- 
|-----------------------------------6-666-66-66-666--1-111-1--3-333-33--

-----------------------------------------------------------------------|
-----------------------------------------------------------------------|    
-2-222-22-22-222--4-444-44-44-444-------------------1-111-1--4-444-44--|
-----------------------------------6-666-66-66-666---------------------|

End-Chorus
|-------------------------------------------------------|
|-------------------------------------------------------|    
|-22222222222-44444444444-------------------------------| x 2
|-------------------------66666666666-1111111-33333333--|

Outro  
|----------------------------------|
|----------------------------------|    
|-22-2-2-22-2222--66-6-6--44-4444--| x 2
|----------------------------------|


That’s it! Cool song – cool band !

I think it's not 100% correct, but sounds cool, too!
I know, that the "End-Chorus"-Part is not played like this in the original, 
but I think, it sounds better this way - try it ;)


Greetz from Hamburg, Germany - Enjoy !
            
Submit corrections



        Waiting lessons Hard to play? Try these video lessons and learn fast Waiting lessons
        
↑ Back to top | Tablatures and chords for acoustic guitar and electric guitar, ukulele, drums are parodies/interpretations of the original songs. You may use it for private study, scholarship, research or language learning purposes only