» » »

Trapt - Use Me To Use You Bass

Artists:  A B C D E F G H I J K L M N O P Q R S T U V W X Y Z # 

Use Me To Use You Bass

(ver. 1) Click to play this song!
Trapt
 Rating:
4/5 (4 votes)


 Use Me To Use You lessons Tabs too difficult? Try these video lessons and learn fast
 
                Band: Trapt

Tuning: Drop C  (C G C F)


Intro/Verse
|-------------------------|
|-------------------------|    
|-5555--------------------|  x 12
|------444-7-4-9-4--------|         

Pre-Chorus                  
|----------------------------------|       
|----------------------------------|      
|-55-5-5-----------55-5-5----------| x 2
|----------44-4-4---------44-4444--| 

Chorus
|-------------------------|
|--------77777------------|    
|-9\55555-----77777/99999-| x 4
|-------------------------|

Intro/Verse
|-------------------------|
|-------------------------|    
|-5555--------------------|  x 12
|------444-7-4-9-4--------|         

Pre-Chorus   (second time end on "2")               
|----------------------------------|       
|----------------------------------|      
|-55-5-5-----------55-5-5----------| x 2
|----------44-4-4---------44-4444--| 
        
Chorus
|-------------------------|
|--------77777------------|    
|-9\55555-----77777/99999-| x 4
|-------------------------|

Break
|-----------------------------------------------|
|--------7~--6h7p6------------------------------|    
|-5~---55---------7-5~-55---------5555----------|
|------------------------4~--444--------4444----|

Intro/Verse
|-------------------------|
|-------------------------|    
|-5555--------------------|  x 3
|------444-7-4-9-4--------|   

Interlude
|-------------------------|
|-------------------------|    
|-55555555----------------|
|-------------------------|   

Chorus  (after 4 times: different hitting!!!)
|-------------------------|
|--------77777------------|    
|-9\55555-----77777/99999-| x 8
|-------------------------|

Intro/Verse
|-------------------------|
|-------------------------|    
|-5555--------------------|  x 3
|------444-7-4-9-4--------|  

End
|-------------------------|
|-------------------------|    
|-5555-5555---------------|
|-------------------------|  


That’s it! Cool song – cool band !

I think it's not 100% correct, but sounds cool, too!


Greetz from Hamburg, Germany - Enjoy !
            
Submit corrections



        Use Me To Use You lessons Hard to play? Try these video lessons and learn fast Use Me To Use You lessons
        
↑ Back to top | Tablatures and chords for acoustic guitar and electric guitar, ukulele, drums are parodies/interpretations of the original songs. You may use it for private study, scholarship, research or language learning purposes only