» » »

Trapt - Stories Bass

Artists:  A B C D E F G H I J K L M N O P Q R S T U V W X Y Z # 

Stories Bass

(ver. 1) Click to play this song!
Trapt
 Rating:
4/5 (4 votes)


 Stories lessons Tabs too difficult? Try these video lessons and learn fast
 
                I tried putting the lyrics to the tabs for timing.  This sounds correct to me.


First 8 measures of song – no bass

Verse
   ...I found..and then..I find...still...
G|----------------------------------|
D|--6-------6--------4--------2-----|
A|----------------------------------|  x2
E|----------------------------------|
   ...I felt...and now...but still...when will...

Chorus 
   Too much of the same stories in...
G|------------------------------------|
D|--6--------2------------------------|
A|-----------------------2-------4----|
E|------------------------------------|

 I think it’s time for change, don’t you?
G|-----------------------------------------|
D|--6---------2----------------------------|
A|----------------------------2------4-----|
E|-----------------------------------------|

   Too much of the same stories in...
G|------------------------------------|
D|--6--------2------------------------|
A|-----------------------2-------4----|
E|------------------------------------|

I think it’s time for...walk away from heeeeeeere.
G|--------------------------------------222222--|
D|--6---------2-------------------------------2-|
A|----------------------2------4----------------|
E|----------------------------------------------|

Hook
    Stories in...keep...insiiiiiiiiiiiide 
G|-----------------------------------------|
D|--6------------6-----------4--------2----|
A|-----------------------------------------|  x2
E|-----------------------------------------|

Verse
   ...Look at..still in..our mem...so...
G|-----------------------------------|
D|--6-------6---------4--------2-----|
A|-----------------------------------| x2
E|-----------------------------------|
   ...When.....and found...and so...no need to...

   ...The same..tried and..we’ve...let’s look...
G|------------------------------------|
D|--6--------6---------4--------2-----|
A|------------------------------------|  
E|------------------------------------|

Chorus...

Bridge
   ...Do you remember lying...
G|-------------------------|
D|------------1-----2------|
A|--2----------------------|  
E|-------------------------|

   ...Do you remember running...
G|-------------------------|
D|------------1-----2------|
A|--2----------------------|  
E|-------------------------|

   ...Do you remember all the...
G|-------------------------|
D|------------1-----2------|
A|--2----------------------|  
E|-------------------------|

   ...................All the songs...
G|-------------------------|
D|------------1-----2------|
A|--2----------------------|  
E|-------------------------|

   ..............You-oooooooooo...
G|--------------------------------|
D|--------111111112222222222222222|
A|22222222------------------------| x6
E|--------------------------------|
  That look................be un...

Prechorus
   true...
G|------------------------------------|
D|--6--------2------------------------|
A|-----------------------2-------4----| x4
E|------------------------------------|

Chorus...
            
Submit corrections



        Stories lessons Hard to play? Try these video lessons and learn fast Stories lessons
        
↑ Back to top | Tablatures and chords for acoustic guitar and electric guitar, ukulele, drums are parodies/interpretations of the original songs. You may use it for private study, scholarship, research or language learning purposes only