» » »

Tony Rice - Old Home Place Tabs

Artists:  A B C D E F G H I J K L M N O P Q R S T U V W X Y Z # 

Old Home Place Tabs

(ver. 1) Click to play this song!
Tony Rice
 Rating:
4/5 (4 votes)


 Old Home Place lessons Tabs too difficult? Try these video lessons and learn fast
 
                -------------------------------------------------------------------------------
                 Old Home Place J.J Crow And The New South
-------------------------------------------------------------------------------

Tuning: Standard
   G                   B7              C                     G
e|-----------------------0---------------------------------------------------|
B|---------------------3---3-1-0---------------------------------------------|
G|-------0---2/4-4\2-0-----------2-0---------0-----------0-------------------|
D|-0-0h2---0-------------------------0---0h2---1p0---0h2---2p0---------------|
A|-------------------------------------3-----------3-------------------------|
E|---------------------------------------------------------------------------|
   (G)                           D
e|-5-4-3---------------------------------------------------------------------|
B|-------5-3-------3-5-3-----------------6b-3-----(1)/----3\1----------------|
G|-----------5-4-5-------5-4-2-0-----5--------5-0-------0--(0)---------------|
D|-------------------------------5/7---7-----------2-/4---\(2)---------------|
A|---------------------------------------------------------------------------|
E|---------------------------------------------------------------------------|
            
Submit corrections



        Old Home Place lessons Hard to play? Try these video lessons and learn fast Old Home Place lessons
        
↑ Back to top | Tablatures and chords for acoustic guitar and electric guitar, ukulele, drums are parodies/interpretations of the original songs. You may use it for private study, scholarship, research or language learning purposes only