» » »

Tokyo Police Club - Swedes In Stockholm Tabs

Artists:  A B C D E F G H I J K L M N O P Q R S T U V W X Y Z # 

Swedes In Stockholm Tabs

(ver. 1) Click to play this song!
Tokyo Police Club
 Rating:
3.8/5 (5 votes)


 Swedes In Stockholm lessons Tabs too difficult? Try these video lessons and learn fast
 
                -------------------------------------------------------------------------------
SWEDES IN STOCKHOLM - TOKYO POLICE CLUB
-------------------------------------------------------------------------------

Tuning: standard

INTRO / VERSE  "You know you should...."

    G5                      C5
e|------------------------------------------------------------------------------|
B|------------------------------------------------------------------------------|
G|----------------------------5-------------------------------------------------|
D|--5-------------------------5-------------------------------------------------| x8
A|--5-------------------------3-------------------------------------------------|
E|--3---------------------------------------------------------------------------|

      "out....."
e|------------------------------------------------------------------------------|
B|------------------------------------------------------------------------------|
G|-----5-----------------2------------------------------------------------------|
D|-----5-----------------2------------------------------------------------------|
A|-----3-----------------0------------------------------------------------------|
E|------------------------------------------------------------------------------|

CHORUS "I won't be here for long"
      C   F#/G Em     C    Am
e|----3----3------0--------0-----0--------------------------------------------------|
B|---0----0------0--------1-----1---------------------------------------------------|
G|---0--- 0------0--------0-----2---------------------------------------------------|
D|---0----0------2--------2-----2---------------------------------------------------|
A|---2----x------2--------3-----0---------------------------------------------------|
E|---3----2------0------------------------------------------------------------------|

POST CHORUS "We go out at night" ()=last time
e|------3--------------0---------------------------(0)--|
B|-----3--------------1----------------------------(1)--|
G|-----0--------------0----------------------------(2)--|
D|-----0--------------2----------------------------(2)--|     x8
A|-----2--------------3----------------------------(0)--|
E|-----3------------------------------------------------|

| /  slide up
| \  slide down
| h  hammer-on
| p  pull-off
| ~  vibrato
| +  harmonic
| x  Mute note
===============================================================================
            
Submit corrections



        Swedes In Stockholm lessons Hard to play? Try these video lessons and learn fast Swedes In Stockholm lessons
        
↑ Back to top | Tablatures and chords for acoustic guitar and electric guitar, ukulele, drums are parodies/interpretations of the original songs. You may use it for private study, scholarship, research or language learning purposes only